Oops, an error
Loading. Please wait.

Feel Good Bass Tab

24,217 views 3 this week
no commentswrite comment
1 2 3 4 5
x 5
add to favorites
launch autoscroll
font size
0
reset
guitar tuner
Autoscroll
slow
fast
+/-
esc
set tempo
stop
Help us to improve Ultimate-Guitar.com Take our survey!
×
Gorillaz-Feel Good Inc.
by:Bassjockey



Gb|------------------------------------------|
Db|---------109-7-7-109----------------------|
Ab|-7-7-910--------------10--7---------------|
Eb|------------------------------------------|


Gb|------------------------------/9~---------|
Db|---------109-7-7-109----------------------|
Ab|-7-7-910--------------10--7---------------|
Eb|------------------------------------------|


Gb|------------------------------------------|x2
Db|---------109-7-7-109----------------------|
Ab|-7-7-910--------------10--7---------------|
Eb|------------------------------------------|



Gb|------------------------------/9~---------|x4
Db|---------109-7-7-109----------------------|
Ab|-7-7-910--------------10--7---------------|
Eb|------------------------------------------|


Gb|------------------------------------------|
Db|------------------------------------------|
Ab|---7---5----------------------------------|
Eb|------------7---5----3----00--------------|

Break

Gb|------------------------------------------|
Db|---------109-7-7-109----------------------|
Ab|-7-7-910--------------10--7---------------|
Eb|------------------------------------------|


Gb|------------------------------/9~---------|
Db|---------109-7-7-109----------------------|
Ab|-7-7-910--------------10--7---------------|
Eb|------------------------------------------|

Gb|------------------------------------------|
Db|---------109-7-7-109----------------------|
Ab|-7-7-910--------------10--7---------------|
Eb|------------------------------------------|


Gb|------------------------------/9~---------|x3
Db|---------109-7-7-109----------------------|
Ab|-7-7-910--------------10--7---------------|
Eb|------------------------------------------|

Break

Gb|------------------------------/9~---------|
Db|---------109-7-7-109----------------------|
Ab|-7-7-910--------------10--7---------------|
Eb|------------------------------------------|


Gb|------------------------------------------|
Db|---------109-7-7-109----------------------|
Ab|-7-7-910--------------10--7---------------|
Eb|------------------------------------------|


Gb|------------------------------/9~---------|
Db|---------109-7-7-109----------------------|
Ab|-7-7-910--------------10--7---------------|
Eb|------------------------------------------|



Gb|------------------------------------------|
Db|---------109-7-7-109----------------------|
Ab|-7-7-910--------------10--7---------------|
Eb|------------------------------------------|

Suggest correction
comments
print report bad tab
guest
You may want to rate the tab now too:
select rating
Wanna post a correction for this tab? Suggest correction