Oops, an error
Loading. Please wait.

Feel Good Inc Tab

version 1
version 1
41,818 views 99 this week
1 commentread comment
1 2 3 4 5
accurate
x 8
add to favorites
launch autoscroll
font size
0
reset
how to read this tab
guitar tuner
Tab Pro tools
  • play this tab
  • loop segment
  • change instrument
  • show fretboard
  • metronome
×
Best way to learn
"Feel Good Inc"
Autoscroll
slow
fast
+/-
esc
set tempo
stop
Contributor
Difficulty
Tuning
intermediate
C# G# C# F# A# D#
NOTE: ALTERNATE TUNING:C#-G#-C#-F#-A#-D#


VERSES:

D#-----------------------------------|
A#-----------------------------------|
F#-----------------------------------|
C#-----------------------------------|
G#---------2-1-----------------------|
C#-1-1-3-4------6-6-9-8-4-1- 1^13----|


VERSE Notes:

**ADD A LITTLE PERCUSSION FROM THE BODY OF YOUR GUITAR IN BETWEEN PAUSES or
  YOU CAN PALM MUTE BTW PAUSES

**FOR THE VERSE: The way I play the last two notes:
  SLIDE FROM 1 to 13**



CHORUS:


    D#      A#m        G#m         Bmb
D#--6--------6----------4----------1------|
A#--7--------6----------4----------2------|
F#--8--------6----------4----------3------|
C#--9--------6----------4----------3------|
G#--6--------8----------6----------1------|
C#--x--------8----------6----------x------|

CHORUS Notes:

**THESE CHORDS PERTAINED TO STANDARD TUNING (THE GUITAR IS TUNED DOWN)
2 RHYTHMS I PLAY:    D,D,U,U,D,U OR D,U,(PALM MUTE),D,U,D,(PALM MUTE)
comments
print report bad tab
1 comment total.
0 reply
DomDom2609 wrote on June 21 2015, 08:54 am

I changed it a bit and play it like this

D#----------------------------------------------|
A#----------------------------------------------|
F#----------------------------------------------|
C#----------------------------------------------|
G#-------------2-1-X-X--------------------------|
C#-1-1-1-1-3-4-----X-X-6-6-6-6-9-8-4-1- 1^13----|

I want to post or [tab]
guest
You may want to rate the tab now too:
select rating
Please do not post tabs as comments. Select "correction" instead!