Oops, an error
Loading. Please wait.

Feel Good Inc Bass Tab

version 1
version 1
758,376 views 2,304 this week
51 commentsread comments
1 2 3 4 5
x 344
add to favorites
launch autoscroll
font size
0
reset
guitar tuner
Autoscroll
slow
fast
+/-
esc
set tempo
stop
Help us to improve Ultimate-Guitar.com Take our survey!
×
Author
Good Feel Inc.
Gorillaz
-By Joe


[Intro]

g|-----------------------------|
d|----------9-8~-6~-6-9-8------|
a|-6~-6-8-9--------------9--6~-|
e|-----------------------------|

g|----------------------------6/8-|
d|----------9-8~-6~-6-9-8---------|
a|-6~-6-8-9--------------9--6~----|
e|--------------------------------|

g|-----------------------------|
d|----------9-8~-6~-6-9-8------|
a|-6~-6-8-9--------------9--6~-|
e|-----------------------------|


[Verse 1]

g|----------------------------6/8-|
d|----------9-8~-6~-6-9-8---------|x4
a|-6~-6-8-9--------------9--6~----|
e|--------------------------------|

g|-6/8-6--------------|
d|-------8-6----------|
a|-----------9-6~-6-6-|
e|--------------------|


[Chorus]

This part is played extreemly lightly in the background...
I'm not really sure if this is guitar or bass...either way it sounds fine.

g|---------------6-6----6-6--6-----------------------------|
d|-----------------------------6-6----6-6--6-8-8----8-8--8-|
a|-6-6----6-6--6-------------------------------------------|
e|---------------------------------------------------------|

g|---------------6-6----6-6--6---------------6-6----6-6----|
d|-----------------------------6-6----6-6--6---------------|
a|-6-6----6-6--6-------------------------------------------|
e|---------------------------------------------------------|

g|-6-6-6----6-6-6-6-6----6-6-|
d|---------------------------|
a|---------------------------|
e|---------------------------|


[Verse 2]

g|-----------------------------|
d|----------9-8~-6~-6-9-8------|
a|-6~-6-8-9--------------9--6~-|
e|-----------------------------|

g|----------------------------6/8-|
d|----------9-8~-6~-6-9-8---------|x4
a|-6~-6-8-9--------------9--6~----|
e|--------------------------------|


[Chorus]

g|---------------6-6----6-6--6-----------------------------|
d|-----------------------------6-6----6-6--6-8-8----8-8--8-|
a|-6-6----6-6--6-------------------------------------------|
e|---------------------------------------------------------|

g|---------------6-6----6-6--6---------------6-6----6-6----|
d|-----------------------------6-6----6-6--6---------------|
a|-6-6----6-6--6-------------------------------------------|
e|---------------------------------------------------------|

g|-6-6-6----6-6-6-6-6----6-6-|
d|---------------------------|
a|---------------------------|
e|---------------------------|


[Outro]

g|-----------------------------|
d|----------9-8~-6~-6-9-8------|
a|-6~-6-8-9--------------9--6~-|
e|-----------------------------|

g----------------------------6/8-|
d----------9-8~-6~-6-9-8---------|x4
a-6~-6-8-9--------------9--6~----|
e--------------------------------|



***********************************

| /   Slide up
| ~   Vibrato

***********************************
Suggest correction
comments
print report bad tab
51 comments total. Showing first comments. show 1 bad comment
+5 reply
SUICIDAL_PRINCE 10 Aug 16, 2005 12:00 AM

Good lock, this was an awesome tablature.

+5 reply
tmacman001 190 Sep 29, 2005 10:02 PM

Solid tab. Good job.

guest
You may want to rate the tab now too:
select rating
Wanna post a correction for this tab? Suggest correction