Oops, an error
Loading. Please wait.

Feel Good Inc Tab

version 1
916,248 views 2,523 this week
59 commentsread comments
1 2 3 4 5
x 149
add to favorites
launch autoscroll
font size
0
reset
how to read this tab
guitar tuner
Autoscroll
slow
fast
+/-
esc
set tempo
stop
Help us to improve Ultimate-Guitar.com Take our survey!
×
Author
Feel good inc. - Gorillaz
Tabbed by:Espen Rian Skog

Tuning:CADGBE (Drop-C) 

Yes I know Drop-C should be with the 5 remaining strings tuned one step down, that
is why I've enclosed a (oneshouldthink) foolproof instruction.
So once again, this is the tuning this song is transcribed for: (CADGBE)

Bassguitar plays this riff throughout the song

Transcribed for guitar

e|---------------------------------------------------------------------------|
B|---------------------------------------------------------------------------|
G|---------------------------------------------------------------------------|
D|---------------------------------------------------------------------------|
A|---------2-1---------------------------------------------------------------|
C|-3-3-5-6-----8-8-11-10-6-3----/15------------------------------------------|

The last slide occours iregularly, with various dist/muting, listen for it.
(If you listen very closely you can hear the bass sliding just a bit back again
before start
ing the riff again.)

e|-11----11------------------------------------------------------------------|
B|----11----11---14---14----12----12-----------------------------------------|
G|------------------13---13----13-----8-/10\8--/-----------------------------|
D|---------------------------------------------------------------------------|
A|---------------------------------------------------------------------------|
C|---------------------------------------------------------------------------|

Bass plays this before chorus.
Play it palm-muted.

e|---------------------------------------------------------------------------|
B|---------------------------------------------------------------------------|
G|---------------------------------------------------------------------------|
D|---------------------------------------------------------------------------|
A|---------------------------------------------------------------------------|
C|--15-13-10-6-3-X-X---------------------------------------------------------|


D#m                A#m
Windmill, Windmill for the land.
G#m                   A#m
Learn forever hand in hand
D#m                 A#m
Take it all in on your stride
G#m                 A#m
It is sticking, falling down
D#m                 A#m
Love forever love is free
G#m                 A#m
Let's turn forever you and me
D#m                A#m
windmill, windmill for the land
  G#m
Is everybody in?


play this riff three times before next verse

e|---------------------------------------------------------------------------|
B|---------------------------------------------------------------------------|
G|--6-6-6-6-6-6--------------------------------------------------------------|x3
D|--6-6-6-8-6-8--------------------------------------------------------------|
A|--4-4-4-4-4-4--------------------------------------------------------------|
C|---------------------------------------------------------------------------| 

   D#m G#m A#m or A#m
e|--6---4---6------1-----------------------------------------------------------|
B|--7---4---6------2-----------------------------------------------------------|
G|--8---4---6------3-----------------------------------------------------------|
D|--8---6---8------3-----------------------------------------------------------|
A|--6---6---8------1-----------------------------------------------------------|
C|-----------------------------------------------------------------------------|

Two notes are repeated throughout the chorus,if you feel like adding them, you can play 
chorus chords like this:

       D#m                    A#m              G#m
e|---6--6--4--6--4--6---------x-x-x-6-x-6------4-4-4-6-4-6------------------|
B|---4--4--4--4--4--4---------9-9-9-6-9-6------4-4-4-4-4-4------------------|
G|---3--3--3--3--3--3---------6-6-6-6-6-6------4-4-4-4-4-4------------------|
D|--(x)(x)(x)(x)(x)(x)--------8-8-8-8-8-8------6-6-6-6-6-6------------------|
A|--(6)(6)(6)(6)(6)(6)--------8-8-8-8-8-8------6-6-6-6-6-6------------------|
C|--------------------------------------------------------------------------|


***********************************
| /  slide up
| \  slide down
| h  hammer-on
| p  pull-off
| ~  vibrato
| +  harmonic
| x  Mute note
|( ) Ghost-note
***********************************
Suggest correction
comments
print report bad tab
59 comments total. Showing first comments.
+2 reply
Dalibor Tarai 10 Apr 07, 2005 12:00 AM

wot is Bmb?

0 reply
Axl_Duff_Izzy 10 May 24, 2005 12:00 AM

buzzwaa

0 reply
doommaker 150 Jun 04, 2005 12:00 AM

Bmb is b minor flat look it up

guest
You may want to rate the tab now too:
select rating
Wanna post a correction for this tab? Suggest correction