Oops, an error
Loading. Please wait.

Feel Good Inc Bass Tab

version 2
version 2
19,321 views 12 this week
2 commentsread comments
1 2 3 4 5
accurate
x 8
add to favorites
launch autoscroll
font size
0
reset
guitar tuner
Tab Pro tools
  • play this tab
  • loop segment
  • change instrument
  • show fretboard
  • metronome
×
Best way to learn
"Feel Good Inc"
Autoscroll
slow
fast
+/-
esc
set tempo
stop
Contributor
Difficulty
novice
Why is everyone who tried to tab this a fucking moron? Watch the video this is how you play it.


FEEL GOOD INC. (Bassline)
As recorded by Gorillaz
(From the 2005 Album DEMON DAYS)


Gtr I (Eb Ab Db Gb)

 Intro - MaVersel Laughter!
  Q=137
 4/4
  Gtrs I, II
|---------|--------------|----------|--------------|----------|
|---------|--------------|----------|--------------|----------|
|---------|--------------|----------|-0---0-3-2----|----------|
|---------|-0---0-2-3--8-|--7-------|------------3-|--0-------|


|--------------|----------|--------------|-----------------|
|--------------|----------|--------------|-----------------|
|--------------|----------|-0---0-3-2----|-----------------|
|-0---0-2-3--8-|--7-------|------------3-|--0--/12-(12)----|


||---------------|----------|--------------|-----------||
||o--------------|----------|--------------|----------o||
||o--------------|----------|-0---0-3-2----|----------o||
||--0---0-2-3--8-|--7-------|------------3-|--0--------||


                                                              4x
||---------------|----------|--------------|------------------||
||o--------------|----------|--------------|-----------------o||
||o--------------|----------|-0---0-3-2----|-----------------o||
||--0---0-2-3--8-|--7-------|------------3-|--0--/12-(12)-----||


 Bridge                            Chorus
|----------------|----------------|-----|
|----------------|----------------|-----|
|----------------|----------------|-----|
|-12-10--7--3--0-|-0--0-0-x-0-x-0-|-----|


   Verse
||---------------|----------|--------------|----------|
||o--------------|----------|--------------|----------|
||o--------------|----------|-0---0-3-2----|----------|
||--0---0-2-3--8-|--7-------|------------3-|--0-------|


|--------------|----------|--------------|------------------||
|--------------|----------|--------------|-----------------o||
|--------------|----------|-0---0-3-2----|-----------------o||
|-0---0-2-3--8-|--7-------|------------3-|--0--/12-(12)-----||


||---------------|----------|--------------|------------------||
||o--------------|----------|--------------|-----------------o||
||o--------------|----------|-0---0-3-2----|-----------------o||
||--0---0-2-3--8-|--7-------|------------3-|--0--/12-(12)-----||


 Bridge    Chorus
|---------|-----|
|---------|-----|
|---------|-----|
|---------|-----|


   Out Verse
||---------------|----------|--------------|-----------------|
||o--------------|----------|--------------|-----------------|
||o--------------|----------|-0---0-3-2----|-----------------|
||--0---0-2-3--8-|--7-------|------------3-|--0--/12-(12)----|


|--------------|----------|--------------|-----------||-----*|
|--------------|----------|--------------|----------o||-----*|
|--------------|----------|-0---0-3-2----|----------o||-----*|
|-0---0-2-3--8-|--7-------|------------3-|--0--------||-----*|



Tablature Legend
----------------
 h   - hammer-on
 p   - pull-off
 b   - bend
 pb  - pre-bend
 r   - bend release (if no number after the r, then release immediately)
 /\  - slide into or out of (from/to "nowhere")
 s   - legato slide
 S   - shift slide
 - natural harmonic
[n]  - artificial harmonic
n(n) - tapped harmonic
 ~   - vibrato
 tr  - trill
 T   - tap
 TP  - trem. picking
 PM  - palm muting
\n/  - tremolo bar dip; n = amount to dip
 \n  - tremolo bar down
 n/  - tremolo bar up
/n\  - tremolo bar inverted dip
 =   - hold bend; also acts as connecting device for hammers/pulls
 <> - volume swell (louder/softer)
 x   - on rhythm slash represents muted slash
 o   - on rhythm slash represents single note slash

Misc Legend
-----------
 |  - bar
||  - double bar
||o - repeat start
o|| - repeat end
*|  - double bar (ending)
 :  - bar (freetime)
 $  - Segno
 &  - Coda
Tempo markers -  = BPM(8/16=s8/s16), where s8 = swing 8ths, s16 = swing 16ths
comments
print report bad tab
2 comments total.
0 reply
jimm, ey? wrote on March 17 2009, 06:24 am

Wrong key!

0 reply
EvanTheNigguh79 wrote on September 28 2009, 10:45 pm

the intro is perfect

I want to post or [tab]
guest
You may want to rate the tab now too:
select rating
Please do not post tabs as comments. Select "correction" instead!