Oops, an error
Loading. Please wait.

Feel Good Inc Bass Tab

version 3
version 3
78,973 views 21 this week
18 commentsread comments
1 2 3 4 5
x 45
add to favorites
launch autoscroll
font size
0
reset
guitar tuner
Autoscroll
slow
fast
+/-
esc
set tempo
stop
Help us to improve Ultimate-Guitar.com Take our survey!
×
Author
Gorillaz-Feel good inc
tabbed by - Scootlaundry

tuning EADG standard


4/4
G|---------|--------------|----------|--------------|----------|
D|---------|--------------|----------|--------------|----------|
A|---------|------------3-|-2--------|-0---0-3-2----|----------|
E|---------|-0---0-2-3----|----------|------------3-|--0-------|


G|--------------|----------|--------------|-----------------|
D|--------------|----------|--------------|-----------------|
A|------------3-|-2--------|-0---0-3-2----|-----------------|
E|-0---0-2-3----|----------|------------3-|--0--/12---------|


G|---------------|----------|--------------|-----------|
D|---------------|----------|--------------|-----------|
A|-------------3-|-2--------|-0---0-3-2----|-----------|
E|--0---0-2-3----|----------|------------3-|--0--------|


                                                              4x
G|---------------|----------|--------------|------------------|
D|---------------|----------|--------------|------------------|
A|-------------3-|-2--------|-0---0-3-2----|------------------|
E|--0---0-2-3----|----------|------------3-|--0--/12----------|


 Bridge                            
G|----------------|----------------|
D|----------------|----------------|
A|----------------|----------------|
E|-12-10--7--3--0-|-0--0-0-x-0-x-0-|

chorus
G|-------------|
D|-------------|
A|-------------|
E|-------------|

  Verse
G|---------------|----------|--------------|----------|
D|---------------|----------|--------------|----------|
A|-------------3-|-2--------|-0---0-3-2----|----------|
E|--0---0-2-3----|----------|------------3-|--0-------|


G|--------------|----------|--------------|------------------|
D|--------------|----------|--------------|------------------|
A|------------3-|-2--------|-0---0-3-2----|------------------|
E|-0---0-2-3----|----------|------------3-|--0--/12----------|


G|---------------|----------|--------------|------------------|
D|---------------|----------|--------------|------------------|
A|-------------3-|-2--------|-0---0-3-2----|------------------|
E|--0---0-2-3----|----------|------------3-|--0--/12----------|


 Bridge    
G|---------|
D|---------|
A|---------|
E|---------|

chorus
G|-------------|
D|-------------|
A|-------------|
E|-------------|

   Outro
G|---------------|----------|--------------|-----------------|
D|---------------|----------|--------------|-----------------|
A|-------------3-|-2--------|-0---0-3-2----|-----------------|
E|--0---0-2-3----|----------|------------3-|--0--/12---------|


G|--------------|----------|--------------|--------|
D|--------------|----------|--------------|--------|
A|------------3-|-2--------|-0---0-3-2----|--------|
E|-0---0-2-3----|----------|------------3-|--0-----|
Suggest correction
comments
print report bad tab
18 comments total. Showing first comments.
-1 reply
specky s+w 10 Apr 19, 2005 12:00 AM

great tab dude

0 reply
lp22luke 153 Nov 15, 2005 03:21 PM

dude not even close

e|-0-0-2-3-7-8--5-5-7-8-3-0-|

1 out of 5

0 reply
Rippleseeker 170 Apr 06, 2006 10:16 PM

Wrong

guest
You may want to rate the tab now too:
select rating
Wanna post a correction for this tab? Suggest correction