Oops, an error
Loading. Please wait.

Feel Good Inc Tab

version 4
version 4
58,293 views 219 this week
7 commentsread comments
1 2 3 4 5
accurate
x 35
add to favorites
launch autoscroll
font size
0
reset
how to read this tab
guitar tuner
Autoscroll
slow
fast
+/-
esc
set tempo
stop
Help us to improve Ultimate-Guitar.com Take our survey!
×
Author
Tabbed by butcherworm
e-mail: butcherworm@hotmail.com

tuning: EADGBe (standard)


[Verse]

(transcribed for guitar)
e|------------------------------|
B|------------------------------|
G|------------------------------|
D|------------------------------|
A|------------------------------|
E|-0-0-2-3-8--7~--5-5-8-7-3--0--|


Guitar plays:
e|-11----11------------------------------------------|
B|----11----11---14---14----12----12-----------------|
G|------------------13---13----13----8--10--8--------|
D|---------------------------------------------------|
A|---------------------------------------------------|
E|---------------------------------------------------|


[Chorus]

e|-----------------------------------------------------------------------|
B|-----------------------------------------------------------------------|
G|-----------------------------------------------------------------------|
D|-------------------------0---------------------------------------------|
A|-----------------0---2--------2--------0----------------0--------------|
E|---0---2----3-------------------------------3---0---3-------3---2------|
   Windmill, Windmill for the land.    Learn for- e -ver hand in hand.

D#m                A#m
Windmill, Windmill for the land.
G#m           A#m
Learn forever hand in hand
D#m               A#m
Take it all in on your stride
G#m             A#m
It is sticking, falling down
D#m          A#m
Love forever love is free
G#m                A#m
Let's turn forever you and me
D#m                A#m
Windmill, Windmill for the land
   G#m
Is everybody in?


D#m : x68876
A#m : 688666
G#m : 466444


please correct it if its wrong.

for questions mail to butcherworm@hotmail.com
www.butcherworm.de.vu


************************************

| ~  Vibrato

************************************
Suggest correction
comments
print report bad tab
7 comments total. Showing first comments. show 1 bad comment
+1 reply
PolySonics 31 wrote on October 17 2005, 04:16 pm

Why does he suck... He did very well on the bass part, but I haven't tried the guitar part yet.

+2 reply
butcherworm 135 wrote on December 7 2005, 08:37 am

sorry the bass part is not correct!
this is the right way:

e|------------------------------|
B|------------------------------|
G|------------------------------|
D|------------------------------|
A|------------------------------|
E|-0-0-2-3-8--7~--5-5-8-7-3--0--|

guest
You may want to rate the tab now too:
select rating
Wanna post a correction for this tab? Suggest correction