Oops, an error
Loading. Please wait.

Feel Good Inc Tab

version 5
version 5
24,973 views 78 this week
1 commentread comment
1 2 3 4 5
accurate
x 10
add to favorites
launch autoscroll
font size
0
reset
how to read this tab
guitar tuner
Autoscroll
slow
fast
+/-
esc
set tempo
stop
Help us to improve Ultimate-Guitar.com Take our survey!
×
Author
FEEL GOOD INC.
As recorded by Gorillaz
(From the 2005 Album DEMON DAYS)

Em
x 7 9 9 8 x
Bm
7 9 9 7 x x     
Am
5 7 7 5 x x

Gtr I (Eb Ab Db Gb Bb Eb)
Gtr II (Eb Ab Db Gb Bb Eb)


[Intro]

[Maniacal Laugh Verse]

Q=137
4/4

Guitar 1
e|---------|--------12-||-----12-(12)------|-(12)---10----10----8-|
B|---------|-----------||o-12--------------|-----------10----10---|
G|---------|-----------||------------------|----------------------|
D|---------|-----------||------------------|----------------------|
A|---------|-----------||o-----------------|----------------------|
E|---------|-----------||------------------|----------------------|


[Bridge]

                                         8x
e|----8--------------|---------------12--||-----|
B|-10----------------|------------------o||-----|
G|------9--(9)---(9)s|=11----(11)s=9-----||-----|
D|-------------------|-------------------||-----|
A|-------------------|------------------o||-----|
E|-------------------|-------------------||-----|


[Chorus]

   Em              Bm
Guitar 2
e|---------------|------------------------|
B|-!8-8--8--8--8-|-(7)-(7)--(7)--(7)--(7)-|
G|-!9-9--9--9--9-|--7---7----7----7----7--|
D|-!9-9--9--9--9-|--9---9----9----9----9--|
A|-!7-7--7--7--7-|--9---9----9----9----9--|
E|---------------|--7---7----7----7----7--|
 |
 |Guitar 1
e|---------------|------------------------|
B|---------------|------------------------|
G|---------------|------------------------|
D|---------------|------------------------|
A|---------------|------------------------|
E|---------------|------------------------|


   Am             Bm
e|--------------|-----------------------|
B|--------------|-----------------------|
G|-5-5--5--5--5-|-7-7------7----7-----7-|
D|-7-7--7--7--7-|-9-9------9----9-----9-|
A|-7-7--7--7--7-|-9-9------9----9-----9-|
E|-5-5--5--5--5-|-7-7------7----7-----7-|
 |
e|--------------|-----------------------|
B|--------------|-----12-(12)--12-------|
G|--------------|-----------------11----|
D|--------------|--------------------12-|
A|--------------|-----------------------|
E|--------------|-----------------------|


   Em                 Bm
e|------------------|------------------------|
B|--8-8---8---8---8-|-(7)-(7)--(7)--(7)--(7)-|
G|--9-9---9---9---9-|--7---7----7----7----7--|
D|--9-9---9---9---9-|--9---9----9----9----9--|
A|--7-7---7---7---7-|--9---9----9----9----9--|
E|------------------|--7---7----7----7----7--|
 |
e|------------------|------------------------|
B|-------12--10--12-|-----10---12---10---12--|
G|-11---------------|------------------------|
D|------------------|------------------------|
A|------------------|------------------------|
E|------------------|------------------------|


   Am                 Bm
e|------------------|--------------------|
B|------------------|--------------------|
G|-5--5---5---5---5-|-7--7---7---7-----7-|
D|-7--7---7---7---7-|-9--9---9---9-----9-|
A|-7--7---7---7---7-|-9--9---9---9-----9-|
E|-5--5---5---5---5-|-7--7---7---7-----7-|
 |
e|------------------|--------------------|
B|---10--12--10--12-|---10--12--10-------|
G|------------------|--------------12-11-|
D|------------------|--------------------|
A|------------------|--------------------|
E|------------------|--------------------|


     Em                    Bm
e||----------------------|------------------------|
B||o---8---8---8---8---8-|-(7)-(7)--(7)--(7)--(7)-|
G||----9---9---9---9---9-|--7---7----7----7----7--|
D||----9---9---9---9---9-|--9---9----9----9----9--|
A||o---7---7---7---7---7-|--9---9----9----9----9--|
E||----------------------|--7---7----7----7----7--|
 |
e||----------------------|------------------------|
B||o------12--12--10--12-|-----10---12---10---12--|
G||--(11)----------------|------------------------|
D||----------------------|------------------------|
A||o---------------------|------------------------|
E||----------------------|------------------------|


                     1.
   Am                 Bm
e|------------------|----------------------||
B|------------------|---------------------o||
G|-5--5---5---5---5-|-7--7---7---7-----7---||
D|-7--7---7---7---7-|-9--9---9---9-----9---||
A|-7--7---7---7---7-|-9--9---9---9-----9--o||
E|-5--5---5---5---5-|-7--7---7---7-----7---||
 |
e|------------------|----------------------||
B|---10--12--10--12-|---10--12--10--------o||
G|------------------|--------------12-11---||
D|------------------|----------------------||
A|------------------|---------------------o||
E|------------------|----------------------||

 2.
e|------------------|------------------|-----------------|
B|------------------|------------------|-----------------|
G|-7--7---7---7---7-|-7--7---7---7---7-|-7--7---7--7---7-|
D|-9--9---9---9---9-|-9--9---9---9---9-|-9--9---9--9---9-|
A|-9--9---9---9---9-|-9--9---9---9---9-|-9--9---9--9---9-|
E|-7--7---7---7---7-|-7--7---7---7---7-|-7--7---7--7---7-|
 |
e|------------------|------------------|--------------12-|
B|---10--12--10--12-|---10--12--10--12-|---10--12--------|
G|------------------|------------------|-----------------|
D|------------------|------------------|-----------------|
A|------------------|------------------|-----------------|
E|------------------|------------------|-----------------|


[Verse 2]

     N.C.
  Guitar 1
e||-----12-(12)------|-(12)---10----10----8-|
B||o-12--------------|-----------10----10---|
G||------------------|----------------------|
D||------------------|----------------------|
A||o-----------------|----------------------|
E||------------------|----------------------|


                                          6x
e|----8--------------|---------------12---||
B|-10----------------|-------------------o||
G|------9--(9)---(9)s|=11----(11)s=9------||
D|-------------------|--------------------||
A|-------------------|-------------------o||
E|-------------------|--------------------||


[Bridge]

   Guitar 1,2
e|-----|
B|-----|
G|-----|
D|-----|
A|-----|
E|-----|


[Chorus]

   Em                 Bm
Guitar 2
e|------------------|------------------------|
B|--8-8---8---8---8-|-(7)-(7)--(7)--(7)--(7)-|
G|--9-9---9---9---9-|--7---7----7----7----7--|
D|--9-9---9---9---9-|--9---9----9----9----9--|
A|--7-7---7---7---7-|--9---9----9----9----9--|
E|------------------|--7---7----7----7----7--|
 |
 |Guitar 1
e|------------------|------------------------|
B|-------12--10--12-|-----10---12---10---12--|
G|-11---------------|------------------------|
D|------------------|------------------------|
A|------------------|------------------------|
E|------------------|------------------------|


   Am                 Bm
e|------------------|--------------------|
B|------------------|--------------------|
G|-5--5---5---5---5-|-7--7---7---7-----7-|
D|-7--7---7---7---7-|-9--9---9---9-----9-|
A|-7--7---7---7---7-|-9--9---9---9-----9-|
E|-5--5---5---5---5-|-7--7---7---7-----7-|
 |
e|------------------|--------------------|
B|---10--12--10--12-|---10--12--10-------|
G|------------------|--------------12-11-|
D|------------------|--------------------|
A|------------------|--------------------|
E|------------------|--------------------|


     Em                    Bm
e||----------------------|------------------------|
B||o---8---8---8---8---8-|-(7)-(7)--(7)--(7)--(7)-|
G||----9---9---9---9---9-|--7---7----7----7----7--|
D||----9---9---9---9---9-|--9---9----9----9----9--|
A||o---7---7---7---7---7-|--9---9----9----9----9--|
E||----------------------|--7---7----7----7----7--|
 |
e||----------------------|------------------------|
B||o------12--12--10--12-|-----10---12---10---12--|
G||--(11)----------------|------------------------|
D||----------------------|------------------------|
A||o---------------------|------------------------|
E||----------------------|------------------------|


                     1.,2.,3.,4.
   Am                 Bm
                                           5x
e|------------------|----------------------||
B|------------------|---------------------o||
G|-5--5---5---5---5-|-7--7---7---7-----7---||
D|-7--7---7---7---7-|-9--9---9---9-----9---||
A|-7--7---7---7---7-|-9--9---9---9-----9--o||
E|-5--5---5---5---5-|-7--7---7---7-----7---||
 |
 |                                         5x
e|------------------|----------------------||
B|---10--12--10--12-|---10--12--10--------o||
G|------------------|--------------12-11---||
D|------------------|----------------------||
A|------------------|---------------------o||
E|------------------|----------------------||


 5.
e|------------------|------------------|-----------------|
B|------------------|------------------|-----------------|
G|-7--7---7---7---7-|-7--7---7---7---7-|-7--7---7--7---7-|
D|-9--9---9---9---9-|-9--9---9---9---9-|-9--9---9--9---9-|
A|-9--9---9---9---9-|-9--9---9---9---9-|-9--9---9--9---9-|
E|-7--7---7---7---7-|-7--7---7---7---7-|-7--7---7--7---7-|
 |
e|------------------|------------------|--------------12-|
B|---10--12--10--12-|---10--12--10--12-|---10--12--------|
G|------------------|------------------|-----------------|
D|------------------|------------------|-----------------|
A|------------------|------------------|-----------------|
E|------------------|------------------|-----------------|


[Out Verse]

     N.C.
Guitar 1
e||-----12-(12)------|-(12)---10----10----8-|
B||o-12--------------|-----------10----10---|
G||------------------|----------------------|
D||------------------|----------------------|
A||o-----------------|----------------------|
E||------------------|----------------------|


                                         4x
e|----8--------------|---------------12--||-----*|
B|-10----------------|------------------o||-----*|
G|------9--(9)---(9)s|=11----(11)s=9-----||-----*|
D|-------------------|-------------------||-----*|
A|-------------------|------------------o||-----*|
E|-------------------|-------------------||-----*|



************************************

| (n)  Ghost note
|  s   slide  
|  o   reprise 

************************************
Suggest correction
comments
print report bad tab
1 comment total.
+1 reply
Ghost:o 118 wrote on August 28 2007, 04:56 pm

Got the right idea.

Using bar chords is right but don't think all the bar chords are right.

guest
You may want to rate the tab now too:
select rating
Wanna post a correction for this tab? Suggest correction