Oops, an error
Loading. Please wait.

Feel Good Inc Bass Tab

version 6
version 6
20,400 views 3 this week
no commentswrite comment
1 2 3 4 5
accurate
x 5
add to favorites
launch autoscroll
font size
0
reset
guitar tuner
Autoscroll
slow
fast
+/-
esc
set tempo
stop
Help us to improve Ultimate-Guitar.com Take our survey!
×
Difficulty
novice
G[-------------------------------]
D[-----------9-8--6---6-9-8------]
A[-6--6-8-9------------------9-6-]
E[-------------------------------]

G[--------------------------------6/8-]
D[-----------9-8--6---6-9-8-----------]
A[-6--6-8-9------------------9-6------]
E[------------------------------------]

G[-------------------------------]
D[-----------9-8--6---6-9-8------]
A[-6--6-8-9------------------9-6-]
E[-------------------------------]X2

G[--------------------------------6/8-]
D[-----------9-8--6---6-9-8-----------]
A[-6--6-8-9------------------9-6------]
E[------------------------------------]X3

G[--------------------------------6/8-6--------------]
D[-----------9-8--6---6-9-8-------------8-6----------]
A[-6--6-8-9------------------9-6------------9-6--6-6-]
E[---------------------------------------------------]

G[------------------------------------]
D[------------------------------------]
A[------------------------------------]
E[------------------------------------]
Hang tight until the guitar finishes

G[-------------------------------]
D[-----------9-8--6---6-9-8------]
A[-6--6-8-9------------------9-6-]
E[-------------------------------]

G[--------------------------------6/8-]
D[-----------9-8--6---6-9-8-----------]
A[-6--6-8-9------------------9-6------]
E[------------------------------------]

G[-------------------------------]
D[-----------9-8--6---6-9-8------]
A[-6--6-8-9------------------9-6-]
E[-------------------------------]

G[--------------------------------6/8-]
D[-----------9-8--6---6-9-8-----------]
A[-6--6-8-9------------------9-6------]
E[------------------------------------]X3

G[------------------------------------]
D[------------------------------------]
A[------------------------------------]
E[------------------------------------]
Another guitar solo, hang tight again!

G[--------------------------------6/8-]
D[-----------9-8--6---6-9-8-----------]
A[-6--6-8-9------------------9-6------]
E[------------------------------------]

G[-------------------------------]
D[-----------9-8--6---6-9-8------]
A[-6--6-8-9------------------9-6-]
E[-------------------------------]

G[--------------------------------6/8-]
D[-----------9-8--6---6-9-8-----------]
A[-6--6-8-9------------------9-6------]
E[------------------------------------]

G[-------------------------------]
D[-----------9-8--6---6-9-8------]
A[-6--6-8-9------------------9-6-]
E[-------------------------------]
Suggest correction
comments
print report bad tab
guest
You may want to rate the tab now too:
select rating
Wanna post a correction for this tab? Suggest correction