Oops, an error
Loading. Please wait.

Feel Good Inc Bass Tab

version 7
version 7
1,055 views 6 this week
no commentswrite comment
1 2 3 4 5
worth learning
x 4
add to favorites
launch autoscroll
font size
0
reset
guitar tuner
Tab Pro tools
  • play this tab
  • loop segment
  • change instrument
  • show fretboard
  • metronome
×
Best way to learn
"Feel Good Inc"
Autoscroll
slow
fast
+/-
esc
set tempo
stop
Contributor
-------------------------------------------------------------------------------
			     "Feel Good Inc." - Gorillaz
-------------------------------------------------------------------------------
This is what I believe the song is supposed to sound like, as the other tabs either had too MANY 
unnecessary notes in them that made the tabs sound bad, or just weren't spot on with the notes 
themselves.
This song is in standard tuning (EADG).
To FULLY get the the speed of the song and to learn the cue's for when to play, I suggest listening 
to the song a few times over and over again to get its beat in your head.
E-mail me at lunicorn305@gmail.com with any questions or tab fixes (so I can know what I did wrong :P).
Before anyone asks me about the E string that has notes on it, if you compare the first 6/8 slide on 
the G string at the beginning of the song with any of the other 7/11 slides in the song, the other 
slides sound deeper, and by playing around on the bass for a bit it seems like the other slides were 
played on the E string (this explains why they sound deeper than the first slide, another possibility 
though could just be the use of a pedal for this one note), if anyone knows what's being played here 
though, cold you please email me about it?
Because even though this is my best guess guess as to what it could be, I'm still curious to what 
it REALLY is.
Oh and most of the song slides when changing notes, so just do that every time you change notes 
while on the same string. 
Other than that, enjoy!

The song is in eight notes for the majority of the time
G|--------|
D|--------|
A|1-2-3-4-|
E|--------|
  1&2&3&4&
Each "-" represents an eight-note

Tabbed by: Luno Blanco
E-mail: lunicorn305@gmail.com

Tuning: Standard bass (EADG)

INTRO
g---------------------------------|
d----------9-8~---8--8-9-8--------|
a-6--6-8-9-----------------8-6~---|
e---------------------------------|x1

g-------------------------------6/8-|
d----------9-8~---8--8-9-8----------|
a-6--6-8-9-----------------8-6~-----|
e-----------------------------------|x1

g---------------------------------|
d----------9-8~---8--8-9-8--------|
a-6--6-8-9-----------------8-6~---|
e---------------------------------|x2

VERSE 1
g------------------------------------|
d----------9-8~---8--8-9-8-----------|
a-6--6-8-9-----------------8-6~------|
e-------------------------------7/11-|x4

VERSE 1 ending going into chorus
g-6/8-6------------------|
d-------8-6--------------|
a-----------8-6~-----6-6-|
e------------------------|

1ST CHORUS
/////
bass doesn't play
/////

VERSE 2 (Rap Part 1)
g---------------------------------|
d----------9-8~---8--8-9-8--------|
a-6--6-8-9-----------------8-6~---|
e---------------------------------|x1

g------------------------------------|
d----------9-8~---8--8-9-8-----------|
a-6--6-8-9-----------------8-6~------|
e-------------------------------7/11-|x1

g---------------------------------|
d----------9-8~---8--8-9-8--------|
a-6--6-8-9-----------------8-6~---|
e---------------------------------|x1

(continue playing even as the rapping stops and the sound begins to fade)
g------------------------------------|
d----------9-8~---8--8-9-8-----------|
a-6--6-8-9-----------------8-6~------|
e-------------------------------7/11-|x3

2ND CHORUS
/////
bass doesn't play here either
/////

VERSE 2 (Rap Part 2) (continue playing until the end)
g------------------------------------|
d----------9-8~---8--8-9-8-----------|
a-6--6-8-9-----------------8-6~------|
e-------------------------------7/11-|x1

g---------------------------------|
d----------9-8~---8--8-9-8--------|
a-6--6-8-9-----------------8-6~---|
e---------------------------------|x1

g------------------------------------|
d----------9-8~---8--8-9-8-----------|
a-6--6-8-9-----------------8-6~------|
e-------------------------------7/11-|x1

g---------------------------------|
d----------9-8~---8--8-9-8--------|
a-6--6-8-9-----------------8-6~---|
e---------------------------------|x1

| /  slide up
| \  slide down
| h  hammer-on
| p  pull-off
| ~  vibrato
| +  harmonic
| x  Mute note
===============================================================================
comments
print report bad tab
I want to post or [tab]
guest
You may want to rate the tab now too:
select rating
Please do not post tabs as comments. Select "correction" instead!