Oops, an error
Loading. Please wait.

Feel Good Inc Tab

version 7
version 7
14,031 views 15 this week
no commentswrite comment
1 2 3 4 5
accurate
x 4
add to favorites
launch autoscroll
font size
0
reset
how to read this tab
guitar tuner
Autoscroll
slow
fast
+/-
esc
set tempo
stop
Help us to improve Ultimate-Guitar.com Take our survey!
×
Author
#----------------------------------PLEASE NOTE--------------------------------#
#This file is the author's own work and represents their interpretation of the#
#song. You may only use this file for private study, scholarship, or research.#
#-----------------------------------------------------------------------------#
#-- File created with Instab - http://www.pconline.com/~smcarey/instab.html --#
#-----------------------------------------------------------------------------#

Author/Artist: Gorillaz
Title: Feel Good Inc.

*Play in relatively same position as tab.

Tuning (Eb A D G B e), Down ~ 10%, (eb, D) Down ~ 20%
Live Standard Tuning, Down ~ 10%
Bedroom Tuning* (Eb A D G B E)
Key: (C + G#)


e |----|--------------------------------------------------------------------------------|
B |----|--------------------------------------------------------------------------------|
G |----|--------------------------------------------------------------------------------|
D |----|--------------------------------------------------------------------------------|
A |----|--------------------------------------------------------------------------------|
Eb|----|-0--0-2-3--8--7-----5--5-8--7---3-0-----0--0-2-3--8-7-----5--5-8-7---3-0--/12---|
  

[Intro Bass Arr. Guitar]

e |-------------------------------------------------------------------------|
B |-------------------------------------------------------------------------|
G |-------------------------------------------------------------------------|
D |-------------------------------------------------------------------------|
A |-------------------------------------------------------------------------|
Eb|-0--0-2-3--8-7-----5--5-8-7---3-0------0--0-2-3--8-7-----5--5-8-7---3-0--|

e |----|----------------------------------------|
B |----|----------------------------------------|
G |----|----------------------------------------|
D |----|----------------------------------------|
A |----|----------------------------------------|
Eb|----|-0--0-2-3--8-7-----5--5-8-7---3-0--/12--|
  

[Verse Arr. Guitar]

e |----|-11----11--------9----9----7---7-----------------|
B |----|----11-------------11---11---7-------------------|
G |----|-------------------------------------------------|
D |----|-------------------------------------------------|
A |----|----------21-----------------------18--18/20-\18-|
Eb|----|-------------------------------------------------|
   

[Verse/Intro]

e |----|-----------------------|
B |----|-----------------------|
G |----|-----------------------|
D |----|-----------------------|
A |----|-----------------------|
Eb|----|-14-12-7--5-0-0--0--0--|
  

[Pre-Chorus Arr. Guitar]

e |----|----------------|--|-----|
B |----|-4---6---4---6--|--|--6--|
G |----|-3---6---4---6--|--|--6--|
D |----|-1---6---6---6--|--|--6--|
A |----|-----4---6---4--|--|--4--|
Eb|----|----------------|--|-----|
  

[Chorus/Bridge]

?

************************************

| / slide up
| \ slide down
| m mute

************************************
Suggest correction
comments
print report bad tab
guest
You may want to rate the tab now too:
select rating
Please do not post tabs as comments. Select "correction" instead!