Oops, an error
Loading. Please wait.

Feel Good Inc Tab

version 8
version 8
22,024 views 624 this week
1 commentread comment
1 2 3 4 5
accurate
x 6
add to favorites
launch autoscroll
font size
0
reset
how to read this tab
guitar tuner
Autoscroll
slow
fast
+/-
esc
set tempo
stop
Help us to improve Ultimate-Guitar.com Take our survey!
×
[Intro + Verse]

e|--------------------------------|
B|--------------------------------|
G|--------------------------------|
D|--------------------------------|
A|---------3-2-0----0-0-3-2-------|
E|-0-0-2-3------------------3-2-0-|
This goes on untill the drumming stops and the chorus begins


[Chorus]

Em                Bm
Windmill windmill for the land
Am           Bm
Turn forever hand in hand
Em                Bm
Take it all there on your stride
Am            Bm
It is tinkin, falling down
Em                Bm
Windmill windmill for the land
Am             Bm
Is everybody in


[Verse]

e|--------------------------------|
B|--------------------------------|
G|--------------------------------|
D|--------------------------------|
A|---------3-2-0----0-0-3-2-------|
E|-0-0-2-3------------------3-2-0-|
This goes on until the chorus starts again


[Chorus]

Em                 Bm
Windmill windmill for the land
Am           Bm
Turn forever hand in hand
Em                Bm
Take it all there on your stride
Am             Bm
It is tinking falling down
Em           Bm
Love forever love is free
Am                 Bm
Let's turn forever you and me
Em                 Bm
Windmill windmill for the land
Am             Bm
Is everybody in


[Verse]

e|--------------------------------|
B|--------------------------------|
G|--------------------------------|
D|--------------------------------|
A|---------3-2-0----0-0-3-2-------|
E|-0-0-2-3------------------3-2-0-|
This goes on until the end of the song
Suggest correction
comments
print report bad tab
1 comment total.
+1 reply
ljeonjko 10 wrote on April 21 2016, 01:16 pm


-|--------------------------------|
-|--------------------------------|
-|--------------------------------|
-|--------------------------------|
-|---------3-2~---0~-0-3-2--------|
-|-0~-0-2-3----------------3--0~--|

try playing it like this

guest
You may want to rate the tab now too:
select rating
Please do not post tabs as comments. Select "correction" instead!