Oops, an error
Loading. Please wait.

Feel Good Inc Tab

version 8
version 8
51,007 views 1,188 this week
4 commentsread comments
1 2 3 4 5
x 8
add to favorites
launch autoscroll
font size
0
reset
how to read this tab
guitar tuner
backing track
0:00
0:00
×
Best way to learn
"Feel Good Inc"
Autoscroll
slow
fast
+/-
esc
set tempo
stop
Author
Tuning
D# G# C# F# A# D#
[Intro + Verse]

eb|-----------------|----------------|-----------------|----------------|
Bb|-----------------|----------------|-----------------|----------------|
Gb|-----------------|----------------|-----------------|----------------|
Db|-----------------|----------------|-----------------|----------------|
Ab|---------------3-|--2-------------|-0-----0-3-2-----|----------------|
Eb|-0-----0-2-3-----|----------------|---------------3-|--0-------------|
This goes on until the drumming stops and the chorus begins


[Chorus]

Em                Bm
Windmill windmill for the land
Am           Bm
Turn forever hand in hand
Em                Bm
Take it all there on your stride
Am            Bm
It is tinkin, falling down
Em           Bm
Love forever love is free
Am                 Bm
Let's turn forever you and me
Em                Bm
Windmill windmill for the land
Am             Bm
Is everybody in


[Verse]

eb|-----------------|----------------|-----------------|----------------|
Bb|-----------------|----------------|-----------------|----------------|
Gb|-----------------|----------------|-----------------|----------------|
Db|-----------------|----------------|-----------------|----------------|
Ab|---------------3-|--2-------------|-0-----0-3-2-----|----------------|
Eb|-0-----0-2-3-----|----------------|---------------3-|--0-------------|
This goes on until the chorus starts again


[Chorus]

Em                 Bm
Windmill windmill for the land
Am           Bm
Turn forever hand in hand
Em                Bm
Take it all there on your stride
Am             Bm
It is tinking falling down
Em           Bm
Love forever love is free
Am                 Bm
Let's turn forever you and me
Em                 Bm
Windmill windmill for the land
Am             Bm
Is everybody in


[Verse]

eb|-----------------|----------------|-----------------|----------------|
Bb|-----------------|----------------|-----------------|----------------|
Gb|-----------------|----------------|-----------------|----------------|
Db|-----------------|----------------|-----------------|----------------|
Ab|---------------3-|--2-------------|-0-----0-3-2-----|----------------|
Eb|-0-----0-2-3-----|----------------|---------------3-|--0-------------|
This goes on until the end of the song
Suggest correction
comments
print report bad tab
4 comments total. Showing first comments.
+7 reply
ljeonjko 10 Apr 21, 2016 09:16 AM

-|--------------------------------|
-|--------------------------------|
-|--------------------------------|
-|--------------------------------|
-|---------3-2~---0~-0-3-2--------|
-|-0~-0-2-3----------------3--0~--|

try playing it like this

+1 reply
liammm580 10 Apr 04, 2017 07:38 AM

👍

+1 reply
efethebaglamaci 10 May 05, 2017 05:13 PM

-|--------------------------------|
-|--------------------------------|
-|--------------------------------|
-|--------------------------------|
-|--------------------------------|
-|-0~-0-2-3-8-7---5-5-8-7-3-0-----|
try like this

guest
You may want to rate the tab now too:
select rating
Wanna post a correction for this tab? Suggest correction