Oops, an error
Loading. Please wait.

Fire Coming Out Of The Monkeys Head bass

version 3
version 3

Whole song

Interactive

412 views 6 this week
5 commentsread comments
1 2 3 4 5
x 3
add to favorites
×
Save as Personal and add changes to this tab that will be seen only by you. Learn more ›
×
You can save this tab as Personal to edit and correct it or add notes. All changes will be seen only by you. Learn more »
launch autoscroll
font size
0
reset
guitar tuner
edit
Autoscroll
slow
fast
+/-
esc
set tempo
stop
Author
Difficulty
Listen to the song for timing. :)

/ means slide


INTRO/VERSE

G---------------------------------|
D---------------------------------| x6
A---------------------------------|
E--3/5----3/5---------3/5----3/5--|


PRE-CHORUS

G---------------------------------|
D---------------------------------|
A---------------------------------|
E-5-0-1-0-1-0-5-5-1-0-8-3-1-1-0-0-|


Don't play the next bit, just a guitar plays here


VERSE

G---------------------------------|
D---------------------------------| x6
A---------------------------------|
E--3/5----3/5---------3/5----3/5--|


PRE-CHORUS

G---------------------------------|
D---------------------------------|
A---------------------------------|
E-5-0-1-0-1-0-5-5-1-0-8-3-1-1-0-0-|


VERSE

G---------------------------------|
D---------------------------------| x10
A---------------------------------|
E--3/5----3/5---------3/5----3/5--|

G---------------------------------|
D---------------------------------|
A---------------------------------|
E--3/5----3/5---------------------|

Again, just guitar after this until the end :)

Hope you enjoyed this tab, please rate and contribute any corrections! Thanks! :D

            
            
Suggest correction
Creating personal tab
Creating personal tab
You can edit any tab online and save it as your Personal.

You can edit, replace or remove any tab part or add personal notes – all changes will be seen only by you.

Personal tabs can be accessed anytime from any device, even offline.
Learn more »
Give kudos to tab author, rate the tab!
1 2 3 4 5
comments
print report bad tab
5 comments total. Showing first comments.
+1 reply
NahJones 10 Mar 25, 2017 05:13 PM

This is definitely the best tab for this song. The pre chorus doesnt sound right on the other ones

+1 reply
NahJones 10 Mar 25, 2017 05:14 PM

One little complaint though. Its hard to tell but im thinking that the pre chorus is played twice the second time round. Correct me if im wrong though

guest
You may want to rate the tab now too:
select rating
Wanna post a correction for this tab? Suggest correction