Oops, an error
Loading. Please wait.

Glitter Freeze Bass Tab

version 1
version 1

Whole song

Interactive

3,537 views 12 this week
no commentswrite comment
1 2 3 4 5
please rate
add to favorites
launch autoscroll
font size
0
reset
guitar tuner
Autoscroll
slow
fast
+/-
esc
set tempo
stop
Help us to improve Ultimate-Guitar.com Take our survey!
×
Difficulty
intermediate
Glitter Freeze - Gorillaz
Its all octave stuff, pretty simple.

(no bass in intro)
G|------------|    |------------|    |------------|    |--------------|
D|---------10-|    |---------15-|    |---------13-|    |-----------15-|
A|------------|x16 |------------|x8  |------------|x4  |--------------|x4
E|---8--------|    |---13-------|    |---11-------|    |---13---------|

G|------------|    |------------|    |------------|    |--------------|
D|---------17-|    |---------13-|    |---------15-|    |-----------10-|
A|------------|x8  |------------|x8  |------------|x8  |--------------|x8
E|---15-------|    |---11-------|    |---13-------|    |---8----------|

G|------------|    |------------|
D|---------15-|    |----------8-|
A|------------|x4  |------------|x8
E|---13-------|    |---6--------|

G|------------|    |------------|    |------------|    |--------------|
D|---------10-|    |---------15-|    |---------13-|    |-----------15-|
A|------------|x16 |------------|x8  |------------|x4  |--------------|x4
E|---8--------|    |---13-------|    |---11-------|    |---13---------|

G|------------|    |------------|    |------------|    |--------------|
D|---------17-|    |---------13-|    |---------15-|    |-----------10-|
A|------------|x8  |------------|x8  |------------|x8  |--------------|x8
E|---15-------|    |---11-------|    |---13-------|    |---8----------|

G|------------|    |------------|
D|---------15-|    |----------8-|
A|------------|x4  |------------|x8
E|---13-------|    |---6--------|

Then from 1:25 to 1:49 just play:

G|------------|
D|-------10---|
A|------------|(couldn't figure out how many there was)
E|---8--------|

then go back to the regular verse: 

G|------------|    |------------|    |------------|    |--------------|
D|---------10-|    |---------15-|    |---------13-|    |-----------15-|
A|------------|x16 |------------|x8  |------------|x4  |--------------|x4
E|---8--------|    |---13-------|    |---11-------|    |---13---------|

G|------------|    |------------|    |------------|    |--------------|
D|---------17-|    |---------13-|    |---------15-|    |-----------10-|
A|------------|x8  |------------|x8  |------------|x8  |--------------|x8
E|---15-------|    |---11-------|    |---13-------|    |---8----------|

G|------------|    |------------|
D|---------15-|    |----------8-|
A|------------|x4  |------------|x8
E|---13-------|    |---6--------|

G|------------|    |------------|    |------------|    |--------------|
D|---------10-|    |---------15-|    |---------13-|    |-----------15-|
A|------------|x16 |------------|x8  |------------|x4  |--------------|x4
E|---8--------|    |---13-------|    |---11-------|    |---13---------|

G|------------|    |------------|    |------------|    |--------------|
D|---------17-|    |---------13-|    |---------15-|    |-----------10-|
A|------------|x8  |------------|x8  |------------|x8  |--------------|x8
E|---15-------|    |---11-------|    |---13-------|    |---8----------|

G|------------|    |------------|
D|---------15-|    |----------8-|
A|------------|x4  |------------|x8
E|---13-------|    |---6--------|

Then:

G|------------|
D|---------10-|
A|------------| (for rest of song)
E|---8--------|

End on:

G|------------|
D|------------|
A|------------| (Hold until end)
E|---8--------|
Suggest correction
Give kudos to tab author, rate the tab!
1 2 3 4 5
comments
print report bad tab
guest
You may want to rate the tab now too:
select rating
Please do not post tabs as comments. Select "correction" instead!