Oops, an error
Loading. Please wait.

Hong Kong Bass

version 2
version 2

Whole song

82 views 6 this week
no commentswrite comment
1 2 3 4 5
3 more votes to show rating
add to favorites
×
Save as Personal and add changes to this tab that will be seen only by you. Learn more ›
×
You can save this tab as Personal to edit and correct it or add notes. All changes will be seen only by you. Learn more »
save as personal
new!
launch autoscroll
font size
0
reset
guitar tuner
Autoscroll
slow
fast
+/-
esc
set tempo
stop
Author
Difficulty
novice
Cover Video: https://www.youtube.com/watch?v=GjBKByo0GH0

Intro / Bridges
G|-----------------| 1x
D|-----------------|
A|-----------------|
E|-7-7-7-7-5-5-5-5-|

Verses 1
G|-----------------------------------------------------------------| 1x
D|-----------------------------------------------------------------|
A|-----------------------------------------------------------------|
E|-7-7-7-7-5-5-5-5-9-9-8-8-7-7-7-7-3-3-3-3-5-5-5-5-3-3-3-3-5-5-5-5-|

Verses 2
G|---------------------------------------------------------| 1x
D|---------------------------------------------------------|
A|---------------------------------------------------------|
E|-12-12-12-12-10-10-10-10-9-9-9-9-8-8-8-8-----------------|

G|---------------------------------------------------------| 1x
D|---------------------------------------------------------|
A|---------------------------------------------------------|
E|-12-12-12-12-10-10-10-10-9-9-9-9-8-8-8-8-9-9-9-9-8-8-8-8-|
Suggest correction
Give kudos to tab author, rate the tab!
1 2 3 4 5
comments
print report bad tab
guest
You may want to rate the tab now too:
select rating
Wanna post a correction for this tab? Suggest correction