Oops, an error
Loading. Please wait.
We have an official Kids With Guns tab made by UG professional guitarists. Check out the tab »
×
66,498 views 204 this week
8 commentsread comments
1 2 3 4 5
x 52
add to favorites
launch autoscroll
font size
0
reset
guitar tuner
Autoscroll
slow
fast
+/-
esc
set tempo
stop
Author
Tuning
E A D G
Kids With Guns

Artist: Gorillaz
Album: Demon days

tabbed by chhang7 (chhang7@hotmail.com)

great album, But it does remind me of Queens of the Stone Age for some strange reason.
Anyway it's a great song

[Intro/Verse]
G|-------------------------|  
D|-------------------------|  
A|----------7-7-5-5--------|  
E|-7-7--5-5----------------|  

[End Verse Bit]
G|------------------------------------------------|  
D|-------------------9-9-----9-9------------------|  
A|------------------------------------------------|  
E|-7-7-7--7-7-7--7-7-----7-7-----7-6-5-4-3-2-1-0--|  

[End bit]
G|----------------------------|  
D|-------7--5-4---------------|  
A|-----5--------5----5--------|  
E|--7-------------7----7------|
Suggest correction
comments
print report bad tab
8 comments total. Showing first comments.
+3 reply
MastaBassa 198 Mar 22, 2006 01:09 PM

The End parts a bit off
should be
G|-----2-2-0--------------|
D|---0-------0-2----0-----|
A|-2--------------2---2-2-|
E|------------------------|

0 reply
kam3 185 Oct 17, 2006 04:46 PM

but other then taht awsome

+1 reply
Robbertto 30 May 20, 2007 08:49 AM

Even MastaBassa's "End part" sounds off

guest
You may want to rate the tab now too:
select rating
Wanna post a correction for this tab? Suggest correction