Oops, an error
Loading. Please wait.

Kids With Guns Bass Tab

version 1
version 1

Whole song

Interactive

61,401 views 177 this week
8 commentsread comments
1 2 3 4 5
x 43
add to favorites
launch autoscroll
font size
0
reset
guitar tuner
Autoscroll
slow
fast
+/-
esc
set tempo
stop
Help us to improve Ultimate-Guitar.com Take our survey!
×
Author
Kids With Guns

Artist: Gorillaz
Album: Demon days

tabbed by chhang7 (chhang7@hotmail.com)

great album, But it does remind me of Queens of the Stone Age for some strange reason.
Anyway it's a great song

[Intro/Verse]
G|-------------------------|  
D|-------------------------|  
A|----------7-7-5-5--------|  
E|-7-7--5-5----------------|  

[End Verse Bit]
G|------------------------------------------------|  
D|-------------------9-9-----9-9------------------|  
A|------------------------------------------------|  
E|-7-7-7--7-7-7--7-7-----7-7-----7-6-5-4-3-2-1-0--|  

[End bit]
G|-----4--------------------|  
D|-------4-2----------------|  
A|-2-4-------4-2--4-2-------|  
E|--------------------------|
Suggest correction
comments
print report bad tab
8 comments total. Showing first comments.
+3 reply
MastaBassa 198 Mar 22, 2006 06:09 PM

The End parts a bit off
should be
G|-----2-2-0--------------|
D|---0-------0-2----0-----|
A|-2--------------2---2-2-|
E|------------------------|

0 reply
kam3 185 Oct 17, 2006 08:46 PM

but other then taht awsome

0 reply
Robbertto 30 May 20, 2007 12:49 PM

Even MastaBassa's "End part" sounds off

guest
You may want to rate the tab now too:
select rating
Wanna post a correction for this tab? Suggest correction