Oops, an error
Loading. Please wait.

Kids With Guns Tab

version 1
version 1

Interactive

38,013 views 117 this week
1 commentread comment
1 2 3 4 5
x 7
add to favorites
launch autoscroll
font size
0
reset
how to read this tab
guitar tuner
×
Best way to learn
"Kids With Guns"
Autoscroll
slow
fast
+/-
esc
set tempo
stop
Song: Kids With Guns
Artist: Gorillaz
Tabbed by: Chris W. (faochris@aol.com)

[Bass line for guitar]
e|-----------------|
B|-----------------|
G|-----------------|
D|-----------------|
A|----------77-55--|
E|--77-55----------|

[Guitar in verse]
e|---------------------------|
B|------0-----0--------------|
G|------0-----0-9-9-x-5-5-5--|
D|--9-9-0-5-5-0-9-9-x-5-5-5--|
A|--9-9-0-5-5-0-7-7-x-3-3-3--|
E|--7-7---3-3----------------|
(Thats all of it, not too much to the song, but a great album!)
Suggest correction
comments
print report bad tab
1 comment total.
0 reply
tobichan95 10 Oct 14, 2015 06:57 AM

it sounds more like this to me...

E---------------------------|
B------0-----0--------------|
G------0-----0-9-9-x-7-7-7--|
D--9-9-0-7-7-0-9-9-x-7-7-7--|
A--9-9-0-7-7-0-7-7-x-5-5-5--|
E--7-7---5-5----------------|

but it can be that my ears are like f* lets hear everything way different

guest
You may want to rate the tab now too:
select rating
Wanna post a correction for this tab? Suggest correction