Oops, an error
Loading. Please wait.

Kids With Guns Bass Tab

version 3
version 3

Whole song

Interactive

1,634 views 1 this week
no commentswrite comment
1 2 3 4 5
please rate
add to favorites
launch autoscroll
font size
0
reset
guitar tuner
Autoscroll
slow
fast
+/-
esc
set tempo
stop
Help us to improve Ultimate-Guitar.com Take our survey!
×
Author
Difficulty
novice
k so pretty much, v.1 was close, v.2 was pretty off. this should fix it up. 

verse:
|--------------------|
|--------------------|
|-----------7-7--5-5-|
|-7-7--5-5-----------|   (play as many times as nessesary)

pre-chorus:
|---------------------------|
|----4-4---4-4--------------|
|-2-2---2-2---2-1-0---------|
|-------------------4-3-2-1-|  

outro:
|-----4--2---------------|
|---------5-4------------|
|-2-5----------5-0---0-0-|
|------------------2-----|

if you find anything message me. i hope you wont! muhahahahah!
Suggest correction
Give kudos to tab author, rate the tab!
1 2 3 4 5
comments
print report bad tab
guest
You may want to rate the tab now too:
select rating
Wanna post a correction for this tab? Suggest correction