Oops, an error
Loading. Please wait.

Kids With Guns Tab

version 3
version 3

Interactive

58,317 views 180 this week
20 commentsread comments
1 2 3 4 5
accurate
x 65
add to favorites
launch autoscroll
font size
0
reset
how to read this tab
guitar tuner
Autoscroll
slow
fast
+/-
esc
set tempo
stop
Help us to improve Ultimate-Guitar.com Take our survey!
×
Contributor
Lewis55 272
[Verse]

Bass line:

E|-------------------------|          E|--------------------------------------------------------------|
B|-------------------------|          B|--------------------------------------------------------------|
G|-------------------------|          G|--------------------------------------------------------------|
D|-------------------------| x11 then D|--------------------------------------------------------------|
A|--------------7-7---5-5--|          A|--------------------------7-7-----7-7-7-7--6--5--4--3--2--1--0|
E|--7-7--5-5---------------|          E|--7-7-7---7-7-7-------5-5-----5-5-----------------------------|

Guitar:
Enters after the bass plays through once.

    B5    A5    E5    D5
E|---------------------------|
B|------0-----0--------------|
G|------0-----0-9-9-x-5-5-5--|
D|--9-9-0-5-5-0-9-9-x-5-5-5--|
A|--9-9-0-5-5-0-7-7-x-3-3-3--|
E|--7-7---3-3----------------|


[Chorus]
 
    B5        A5        E5        D5
e|-----------------------------------------|
B|-----------------------------------------|
G|--------------------------9---------7----|
D|------9---------7-------9---9-----7---7--|
A|----9---9-----7---7---7---------5--------|
E|--7---------5----------------------------|


[Outro]
 
    B5
e|---------------------14-14-14--12-12-12---|
B|------------------------------------------|
G|------------------------------------------|
D|--7-7-7-7---------------------------------| repeat till end
A|--7-7-7-7--(x7)---------------------------|
E|--9-9-9-9---------------------------------|
comments
print report bad tab
20 comments total. Showing first comments.
0 reply
snails_tabs 11 wrote on December 17 2005, 11:40 am

just for you ill give it 5 stars!!!!!1 wooooooow

0 reply
spiro 14 wrote on June 29 2006, 02:26 am

very good.

0 reply
kam3 459 wrote on October 17 2006, 08:48 pm

AWESOME MAN

I want to post or [tab]
guest
You may want to rate the tab now too:
select rating
Please do not post tabs as comments. Select "correction" instead!