Oops, an error
Loading. Please wait.

Kids With Guns Tab

version 3
version 3

Interactive

63,420 views 279 this week
20 commentsread comments
1 2 3 4 5
x 71
add to favorites
launch autoscroll
font size
0
reset
how to read this tab
guitar tuner
Autoscroll
slow
fast
+/-
esc
set tempo
stop
Help us to improve Ultimate-Guitar.com Take our survey!
×
Author
Tuning
E A D G B E
[Verse]

Bass line:

E|-------------------------|          E|--------------------------------------------------------------|
B|-------------------------|          B|--------------------------------------------------------------|
G|-------------------------|          G|--------------------------------------------------------------|
D|-------------------------| x11 then D|--------------------------------------------------------------|
A|--------------7-7---5-5--|          A|--------------------------7-7-----7-7-7-7--6--5--4--3--2--1--0|
E|--7-7--5-5---------------|          E|--7-7-7---7-7-7-------5-5-----5-5-----------------------------|

Guitar:
Enters after the bass plays through once.

    B5    A5    E5    D5
E|---------------------------|
B|------0-----0--------------|
G|------0-----0-9-9-x-7-7-7--|
D|--9-9-0-7-7-0-9-9-x-7-7-7--|
A|--9-9-0-7-7-0-7-7-x-5-5-5--|
E|--7-7---5-5----------------|


[Chorus]
 
    B5        A5        E5        D5
e|-----------------------------------------|
B|-----------------------------------------|
G|--------------------------9---------7----|
D|------9---------7-------9---9-----7---7--|
A|----9---9-----7---7---7---------5--------|
E|--7---------5----------------------------|


[Outro]
 
    B5
e|---------------------14-14-14--12-12-12---|
B|------------------------------------------|
G|------------------------------------------|
D|--7-7-7-7---------------------------------| repeat till end
A|--7-7-7-7--(x7)---------------------------|
E|--9-9-9-9---------------------------------|
Suggest correction
comments
print report bad tab
20 comments total. Showing first comments.
0 reply
snails_tabs 10 Dec 17, 2005 11:40 AM

just for you ill give it 5 stars!!!!!1 wooooooow

0 reply
spiro 10 Jun 29, 2006 02:26 AM

very good.

0 reply
kam3 185 Oct 17, 2006 08:48 PM

AWESOME MAN

guest
You may want to rate the tab now too:
select rating
Wanna post a correction for this tab? Suggest correction