Oops, an error
Loading. Please wait.

Kids With Guns Bass

version 4
version 4

Whole song

Interactive

2,099 views 3 this week
no commentswrite comment
1 2 3 4 5
3 more votes to show rating
add to favorites
launch autoscroll
font size
0
reset
guitar tuner
×
Best way to learn
"Kids With Guns"
Autoscroll
slow
fast
+/-
esc
set tempo
stop
Author
Difficulty
Okay my fellow Gorillaz, These are the Bass riffs that are played in Kids With 
Guns.I did this by ear and sounds just about right. Hope you enjoy it :P 

G|--------------------|  
D|-----------2-2--0-0-|  
A|-2-2--0-0-----------|  
E|--------------------|  

G|---------------|-------4-4-----4-4-|--4-3-2-1-0-------|  
D|---------------|-------------------|------------4-3-2-|  
A|-2-2-2---2-2-2-|---2-2-----2-2-----|------------------|  
E|---------------|-------------------|------------------|  

G|--------------------|  
D|-----------2-2--0-0-|  
A|-2-2--0-0-----------|  
E|--------------------|

G|--------------------|  
D|--------------------|  
A|-2-2-2--2-2-2-------|  
E|--------------------|

G|--------------------|  
D|-----------2-2--0-0-|  
A|-2-2--0-0-----------|  
E|--------------------|

G|--------------------|  
D|--------------------|  
A|-2-2-2--2-2-2-------|  
E|--------------------|

G|--------------------|  
D|-----------2-2--0-0-|  
A|-2-2--0-0-----------|  
E|--------------------|

G|-----2---------------|  
D|-------5-------------|  
A|-2-5-----5-2-5-------|  
E|---------------------|
Suggest correction
Give kudos to tab author, rate the tab!
1 2 3 4 5
comments
print report bad tab
guest
You may want to rate the tab now too:
select rating
Wanna post a correction for this tab? Suggest correction