Oops, an error
Loading. Please wait.

Last Living Souls Bass Tab

version 1
version 1

Whole song

Interactive

4,508 views 12 this week
no commentswrite comment
1 2 3 4 5
accurate
x 6
add to favorites
launch autoscroll
font size
0
reset
guitar tuner
Tab Pro tools
  • play this tab
  • loop segment
  • change instrument
  • show fretboard
  • metronome
Autoscroll
slow
fast
+/-
esc
set tempo
stop
Contributor
Difficulty
novice
Very soft bass for this song, listen carefully.  

Intro (Are we the last, livin' souls?)

G|--------|--------|--------|--------|
D|--------|--------|--------|--------|
A|33------|--------|33------|--------|
E|--------|33------|--------|33------|

G|--------|--------|--------|--------|
D|--------|--------|--------|--------|
A|33------|--------|33------|--------|
E|--777-7-|3355-5-3|--------|3355-5-3|

(Just a law, and we begin, to sing a song,)

G|--------|--------|--------|--------|
D|--------|--------|--------|--------|
A|--------|--------|--------|--------|
E|09999-9-|05555-3-|09999-9-|05555-3-|

(And it grows)

G|--------|--------|--------|--------|
D|--------|--------|--------|--------|
A|--------|--------|--------|--------|
E|--9-----|--9-----|--9-----|--9-----|

(Second 'are we the last living souls')(2x)

G|--------|--------|--------|--------|
D|--------|--------|--------|--------|
A|33------|--------|33------|--------|
E|--777-7-|3355-5-3|--------|3355-5-3|


(Are we the last, to get away?)

G|--------|--------|--------|--------|
D|--------|--------|--------|--------|
A|--------|--------|--------|--------|
E|09999---|0555-5--|09999---|0555-5--|

(Do we know?)

G|--------|--------|--------|--------|
D|--------|--------|--------|--------|
A|--------|--------|--------|--------|
E|--9-----|--9-----|--9-----|--9-----|

(Third are we the last livin' souls?)(2x)

G|--------|--------|--------|--------|
D|--------|--------|--------|--------|
A|33------|--------|33------|--------|
E|--777-7-|3355-5-3|--------|3355-5-3|

(Get up, get up, get up, get up...)

G|--------|--------|--------|--------|
D|--------|--------|--------|--------|
A|--------|--------|--------|--------|
E|012-----|09------|012-----|09------|

The intro basically just repeats itself from here on, except here:

The last few seconds of the song

G|--------|--------|--------|--------|
D|--------|--------|--------|--------|
A|--------|--------|--------|--------|
E|121212--|555-----|121212--|555-----|

That's it.


comments
print report bad tab
I want to post or [tab]
guest
You may want to rate the tab now too:
select rating
Please do not post tabs as comments. Select "correction" instead!