Oops, an error
Loading. Please wait.

Let Me Out chords

version 2
version 2

Whole song

  • Includes chords, lead melodies and alternate/capo fingerings.
448 views 3 this week
no commentswrite comment
1 2 3 4 5
3 more votes to show rating
add to favorites
×
Save as Personal and add changes to this tab that will be seen only by you. Learn more ›
×
You can save this tab as Personal to edit and correct it or add notes. All changes will be seen only by you. Learn more »
launch autoscroll
font size
0
reset
transpose
0
reset
simplify chords
display chords
guitar tuner
edit
Autoscroll
slow
fast
+/-
esc
set tempo
stop
Author
Difficulty
About this tab version
Includes chords, lead melodies and alternate/capo fingerings. Was this info helpful? Yes No
Strumming Is this strumming pattern correct? Yes No
Whole song 82 bpm
1
&
2
&
3
&
4
&
Listen
Gorillaz
"Let Me Out"

Standard Tuning. Corrections welcome!

Suggested fingerings:                                             Alternates (also work with cap 4th fret)

  G#m   B/F#  E   G#m/D# C#m  D#m  G#   A#m  B    F#   E    D#    G#m  B/F# E   G#m/D# C#m      D#m 
e|11----11----7----7-----4----6----4----6----7----2----0---(6)---(4)--(7)--(4)--(4)---------4--------6-|
B|12----12----9----9-----5----7----4----6----7----2----0----8-----4----4---(5)--(4)---------5--------7-|
G|13----11----9----8-----6----8----5----6----8----3----1----8-----4----4----4----4-----1----6---3----8-|
D|---------------------------------6----8----9----4----2----8-----6----4----6----6-----2-or-6---4-or-8-|
A|---------------------------------6----8----9----4----2----8----(6)--(6)---7----6-----4----4---6----6-|
E|---------------------------------4----6----7----2----0---------(4)--(7)------------------------------|


[Verse]
  Hook
e|---11----------11----------11----------11-------|
B|------12-11-------12-11-------12-11-------12-11-|
G|13----------13----------13----------13----------|
D|------------------------------------------------|
A|------------------------------------------------|
E|------------------------------------------------|
  Verse melody
e|----11----------------------------7--------------------11----------------------------7------------4---|
B|--12------12------9-------9---7-9--------7-----------12------12------9-------9---7-9--------5-7-------|
G|13------11------9-------9---8----------6-----------13------11------9-------9---8----------6-----------|
D|------------------------------------------------------------------------------------------------------|
A|------------------------------------------------------------------------------------------------------|
E|------------------------------------------------------------------------------------------------------|

N.C.
Mama Mavis, oh
N.C.
Mama, they tried my patience
(G#m)                                 G#m
Obama is gone, who is left to save us?

We mourn, I'm praying for my neighbors
                                 (G#m)
They say the devil's at work and Trump is calling favors
G#m
You say I'm dangerous, I speak for the nameless
G#m
I fly with the vultures, I be with them bangers
G#m
If change don't come, then the change won't come
G#m
If the bands make them dance, then the rain gon' come

[Chorus]
G#m  B/F#      E      G#m/D#
Am I passin' into the light?
     C#m          D#m     G#m
Am I looking into mercy's eyes? (Look into your eyes)
G#m        B/F#     E           G#m/D#
   All the world is out of your hands
  C#m         D#m        G#m
I ascend and another dies (Let me out)
G#m B/F#       E         G#m/D#
    You got to die a little 
C#m       D#m       G#m
   If you wanna live
G#m B/F#   E       G#m/D#
    Change come to pass (Let me out)
C#m              D#m          G#m
   You'd best be ready for it
G#m       B/F#   E      G#m/D#
Something I've begun to fear 
    C#m     D#m       G#m
Is about to change it all
G#m         B/F#         E        G#m/D#
Yeah, yeah, yeah, it's a shift in time 
      C#m       D#m      G#m
But I won't get tired at all
N.C.
(Let me out, let me out, let me out)

[Verse]
G#m
Look into my eyes, mama, tell me what you see
G#m
Tell me there's a chance for me to make it off the streets
G#m
Tell me that I won't die at the hands of the police
G#m
Promise me I won't outlive my nephew and my niece
G#m
Promise me my pastor isn't lyin' as he preach
G#m
Tell me that they'll listen if it's lessons that I teach
G#m
Tell me there's a heaven in the sky where there is peace
G#m
But until then, I keep my piece in arm's reach

[Chorus]
G#m  B/F#      E      G#m/D#
Am I passin' into the light?
     C#m          D#m     G#m
Am I looking into mercy's eyes? (Look into your eyes)
G#m        B/F#     E           G#m/D#
   All the world is out of your hands
  C#m         D#m        G#m
I ascend and another dies
G#m B/F#       E         G#m/D#
    You got to die a little 
C#m       D#m       G#m
   If you wanna live
G#m B/F#   E       G#m/D#
    Change come to pass
C#m              D#m          G#m
   You'd best be ready for it
G#m       B/F#   E      G#m/D#
Something I've begun to fear 
    C#m     D#m       G#m
Is about to change it all
G#m         B/F#         E        G#m/D#
Yeah, yeah, yeah, it's a shift in time 
      C#m       D#m      G#m
But I won't get tired at all

[Chorus]
G#m  B/F#      E      G#m/D#
Am I passin' into the light?
     C#m          D#m     G#m
Am I looking into mercy's eyes? (Let me out)
G#m        B/F#     E           G#m/D#
   All the world is out of your hands
   C#m         D#m        G#m
(I ascend and another dies)
G#m B/F#       E         G#m/D#
    You got to die a little 
C#m       D#m       G#m
  (If you wanna live) If you wanna live
G#m B/F#   E       G#m/D#
    Change come to pass
                      C#m D#m 
Oh, a change is comin'
                    G#m                    
You'd best be ready
A#m                        B
  Be ready for it (Uh huh)
           A#m
Ready for it
         G#
Be ready
        F#
Be Ready (Ohh)   
E
Ohh
D#
Ohh
N.C.
(Let me out)

            
            
Suggest correction
Creating personal tab
Creating personal tab
You can edit any tab online and save it as your Personal.

You can edit, replace or remove any tab part or add personal notes – all changes will be seen only by you.

Personal tabs can be accessed anytime from any device, even offline.
Learn more »
Give kudos to tab author, rate the tab!
1 2 3 4 5
comments
print report bad tab
guest
You may want to rate the tab now too:
select rating
Wanna post a correction for this tab? Suggest correction