Oops, an error
Loading. Please wait.

O Green World bass

version 5
version 5

Interactive

2,783 views 1 this week
1 commentread comment
1 2 3 4 5
x 10
add to favorites
×
Save as Personal and add changes to this tab that will be seen only by you. Learn more ›
×
You can save this tab as Personal to edit and correct it or add notes. All changes will be seen only by you. Learn more »
launch autoscroll
font size
0
reset
guitar tuner
edit
Autoscroll
slow
fast
+/-
esc
set tempo
stop
Difficulty
I saw a couple of the bass tabs for this song that weren't so accurate, so I 
thought I'd make one on my own. Leave any questions or comments if you have any.
The bass may be palm-muted to get that certain clicky sound.

Verse I:
G|--------------------7-7-7-7-|
D|----------------------------|
A|-------------------5-5-5-5--|
E|-5--0-4--0-3-3-1------------|x4

Chorus:
G|------------------------------------------|
D|------------------------------------------|
A|-5-5--5-5--5-5--5-5--8-8--8-8--8-8--8-8---|
E|------------------------------------------|

G|--------------------------------------------------------------|
D|--------------------------------------------------------------|
A|-10-10--10-10--10-10--10-10--12-12--12-12-12-12/-0-0-0-3-5----|
E|--------------------------------------------------------------|

Verse II:                                             
G|--------------|                             
D|-17-17-17-15--|                             
A|--------------|                             
E|--------------|x7

G|-----------------|
D|-----------------|
A|-12-12-12-15-17--|
E|-----------------|
Play Verse II x3
****************
Verse I x4
****************
Verse II x7 or until end
****************
Hope this helps! Good luck
Suggest correction
Creating personal tab
Creating personal tab
You can edit any tab online and save it as your Personal.

You can edit, replace or remove any tab part or add personal notes – all changes will be seen only by you.

Personal tabs can be accessed anytime from any device, even offline.
Learn more »
comments
print report bad tab
1 comment total.
0 reply
Shevan 10 Sep 15, 2014 04:26 PM

Awesome perfect baseline.

guest
Wanna post a correction for this tab? Suggest correction