Oops, an error
Loading. Please wait.

On Melancholy Hill Acoustic tab

version 7
version 7

Whole song

Interactive

1,873 views 24 this week
no commentswrite comment
1 2 3 4 5
x 3
add to favorites
×
Save as Personal and add changes to this tab that will be seen only by you. Learn more ›
×
You can save this tab as Personal to edit and correct it or add notes. All changes will be seen only by you. Learn more »
launch autoscroll
font size
0
reset
how to read this tab
guitar tuner
edit
Autoscroll
slow
fast
+/-
esc
set tempo
stop
Author
Difficulty
Unregistered
-------------------------------------------------------------------------------
                             On Melancholy Hill Acoustic - The Gorillaz
-------------------------------------------------------------------------------
Tabbed by: Bassfromspace (Originally Randomoers on YT, couldn't find her version here)
E-mail: misconceptiondeception@gmail.com

Tuning: Standard (EADGBe)

This is played throughout the entire song: repeat from top when finished

e|---------------------------------------------------------------------------|
B|---------------------------------------------------------------------------|
G|---------11-------11-------------------------------------------------------|
D|-------------12---------------x4-------------------------------------------|
A|-----12--------------------------------------------------------------------|
E|---------------------------------------------------------------------------|

e|---------------------------------------------------------------------------|
B|---------------------------------------------------------------------------|
G|----------6------6---------------------------------------------------------|
D|-------------7-----------------x4------------------------------------------|
A|-----7---------------------------------------------------------------------|
E|---------------------------------------------------------------------------|

e|---------------------------------------------------------------------------|
B|---------------------------------------------------------------------------|
G|---------7------7----------------------------------------------------------|
D|------------9----------------x4--------------------------------------------|
A|----9----------------------------------------------------------------------|
E|---------------------------------------------------------------------------|

e|-------------------------------------------------------------------------------|
B|-------------------------------------------------------------------------------|
G|------4-----4----------4-----4-----------6-------6----------6-------6----------|
D|---------5----------------5------------------7------------------7------------x2|
A|---5----------------5----------------7-------------------7---------------------|
E|-------------------------------------------------------------------------------|



************************************

| /   slide up
| \   slide down
| h   hammer-on
| p   pull-off
| ~   vibrato
| +   harmonic
| x   Mute note
| b   Bend
| pb  Pre-bend
| br  Bend release
| pbr Pre-bend release
| brb Bend release bend

************************************

            
            
Suggest correction
Creating personal tab
Creating personal tab
You can edit any tab online and save it as your Personal.

You can edit, replace or remove any tab part or add personal notes – all changes will be seen only by you.

Personal tabs can be accessed anytime from any device, even offline.
Learn more »
Give kudos to tab author, rate the tab!
1 2 3 4 5
comments
print report bad tab
guest
Wanna post a correction for this tab? Suggest correction