Oops, an error
Loading. Please wait.

Plastic Beach bass

version 1
version 1

Whole song

Interactive

6,393 views 21 this week
no commentswrite comment
1 2 3 4 5
x 4
add to favorites
×
Save as Personal and add changes to this tab that will be seen only by you. Learn more ›
×
You can save this tab as Personal to edit and correct it or add notes. All changes will be seen only by you. Learn more »
launch autoscroll
font size
0
reset
guitar tuner
edit
Autoscroll
slow
fast
+/-
esc
set tempo
stop
Difficulty
Gorillaz - Plastic Beach 
Bass tab
standard tuning


G|--------|--------|--------|--------|--------|--------|
D|--------|------0-|5--55---|4--44---|2--22--2|2-------|
A|2--22--2|2---2---|--------|--------|--------|--------|
E|--------|--------|--------|--------|--------|--------|

G|---22~--|--------|--------|--------|--------|--------|
D|--2-----|--------|--------|--------|--------|------0-|
A|04------|--------|--------|--------|2~------|----2---|
E|--------|--------|2--22--2|2--22-2-|--------|--------|

G|--------|--------|--------|--------|
D|5--55---|2~----23|4--44--4|4---420-|
A|--------|--------|--------|-------4| (continuing into
E|--------|--------|--------|--------|    the verse)

Verse1:
G|--------|--------|
D|----4---|--------|
A|2--2---2|----2---|
E|--------|0--0---0| x7


Chorus:
G|----------------|--------4-------|
D|--------000-0---|2-----2---2-----|
A|2---2-22------2-|------------2---|
E|----------------|---------------0| x4


Bridge (no bass actually, just an alternative):
G|4--411--4|----4---|
D|---------|2--2---2|
A|---------|--------|   (continuing into the 
E|---------|--------|      verse directly)
(11, not 1s)


Verse2:
G|--------|--------|
D|----4---|--------|
A|2--2---2|----2---|
E|--------|0--0---0| x5



Chorus:
G|----------------|--------4-------|
D|--------000-0---|2-----2---2-----|
A|2---2-22------2-|------------2---|
E|----------------|---------------0| x ∞ (infinity)



tabbed by hidde

            
            
Suggest correction
Creating personal tab
Creating personal tab
You can edit any tab online and save it as your Personal.

You can edit, replace or remove any tab part or add personal notes – all changes will be seen only by you.

Personal tabs can be accessed anytime from any device, even offline.
Learn more »
comments
print report bad tab
guest
Wanna post a correction for this tab? Suggest correction