Oops, an error
Loading. Please wait.

Rock The House intro tab

version 1
version 1

Intro

Whole song

Interactive

11,680 views 42 this week
1 commentread comment
1 2 3 4 5
x 10
add to favorites
×
Save as Personal and add changes to this tab that will be seen only by you. Learn more ›
×
You can save this tab as Personal to edit and correct it or add notes. All changes will be seen only by you. Learn more »
launch autoscroll
font size
0
reset
how to read this tab
guitar tuner
edit
Autoscroll
slow
fast
+/-
esc
set tempo
stop
Hi, here is my intro of Rock The House, enjoy.

|--8-7-----------5---------8-7--10--7-5--------------|
|------8----6-8-------6-8----------------------------|
|---------7---------7--------------------------------|
|----------------------------------------------------|
|----------------------------------------------------|
|----------------------------------------------------|

and afther that its:

|----------8-7-----------5---------8-7--10--7-5-------------|
|---6-8---------8----6-8-------6-8--------------------------|
|-7----------------7---------7------------------------------|
|-----------------------------------------------------------|
|-----------------------------------------------------------|
|-----------------------------------------------------------|

and then you repeat the whole thing.

Otter.
Suggest correction
Creating personal tab
Creating personal tab
You can edit any tab online and save it as your Personal.

You can edit, replace or remove any tab part or add personal notes – all changes will be seen only by you.

Personal tabs can be accessed anytime from any device, even offline.
Learn more »
comments
print report bad tab
1 comment total.
0 reply
Beanjo 20 May 29, 2017 05:32 PM

I usually start the first riff with this. If you listen to the song I believe you can hear it.

|---5--5-----
|------------
|------------
|------------
|------------
|------------

guest
You may want to rate the tab now too:
select rating
Wanna post a correction for this tab? Suggest correction