Oops, an error
Loading. Please wait.

Saturnz Barz tab

1,258 views 42 this week
1 commentread comment
1 2 3 4 5
x 5
add to favorites
×
Save as Personal and add changes to this tab that will be seen only by you. Learn more ›
×
You can save this tab as Personal to edit and correct it or add notes. All changes will be seen only by you. Learn more »
launch autoscroll
font size
0
reset
how to read this tab
guitar tuner
edit
Autoscroll
slow
fast
+/-
esc
set tempo
stop
About this tab version
This guitar tab follows the main synth parts of Saturnz Barz. It uses an eighth note delay to fill out the spaces. This tab is based off of this video: https://www.youtube.com/watch?v=gb1KeliZEec1KeliZEec. Was this info helpful? Yes No
This guitar tab follows the main synth parts of Saturnz Barz. It uses an eighth note delay to fill out the 
spaces.

If you would like a demonstration of this song being played on guitar, visit the link below to see the guitar 
cover this tab is based off of:
https://www.youtube.com/watch?v=gb1KeliZEec


[Intro] "press the button to begin"

    1  e  +  a  2  e  +  a  3  e  +  a  4  e  +  a
e|--------------16----14----------------------------|
b|--------14-15-------------------------------------|
G|-----14-------------------------------------------|
D|--16----------------------------------------------|
A|--------------------------------------------------|
E|--------------------------------------------------|

    1  e  +  a  2  e  +  a  3  e  +  a  4  e  +  a
e|--------------14-16-17-16-14----------------------|
b|--------14-15-------------------15-14-15-14-15-14-|
G|-----14-------------------------------------------|
D|--16----------------------------------------------|
A|--------------------------------------------------|
E|--------------------------------------------------|

    1  e  +  a  2  e  +  a  3  e  +  a  4  e  +  a
e|--------------------------------------------------|
b|--------------------------------------------------|
G|--15----14----------------------------------------|
D|--------------------------------------------------|
A|--------------------------------------------------|
E|--------------------------------------------------|

    1  e  +  a  2  e  +  a  3  e  +  a  4  e  +  a
e|--------------16----14----------------16----------|
b|--------------------------------------------------|
G|--13-14-16-14-13----11----------------13----------|
D|--------------------------------------------------|
A|--------------------------------------------------|
E|--------------------------------------------------|

[Chorus 1] "All my life"

Rest for 8 bars
 

[Verse 1]

    1  e  +  a  2  e  +  a  3  e  +  a  4  e  +  a
e|--------------16----14----------------------------|
b|--------14-15-------------------------------------|
G|-----14-------------------------------------------|
D|--16----------------------------------------------|
A|--------------------------------------------------|
E|--------------------------------------------------|

    1  e  +  a  2  e  +  a  3  e  +  a  4  e  +  a
e|--------------14-16-17-16-14----------------------|
b|--------14-15-------------------15-14-15-14-15-14-|
G|-----14-------------------------------------------|
D|--16----------------------------------------------|
A|--------------------------------------------------|
E|--------------------------------------------------|

    1  e  +  a  2  e  +  a  3  e  +  a  4  e  +  a
e|--------------------------------------------------|
b|--------------------------------------------------|
G|--15----14----------------------------------------|
D|--------------------------------------------------|
A|--------------------------------------------------|
E|--------------------------------------------------|

    1  e  +  a  2  e  +  a  3  e  +  a  4  e  +  a
e|--------------16----14----------------16----------|
b|--------------------------------------------------|
G|--13-14-16-14-13----11----------------13----------|
D|--------------------------------------------------|
A|--------------------------------------------------|
E|--------------------------------------------------|

    1  e  +  a  2  e  +  a  3  e  +  a  4  e  +  a
e|--------------16----14----------------------------|
b|--------14-15-------------------------------------|
G|-----14-------------------------------------------|
D|--16----------------------------------------------|
A|--------------------------------------------------|
E|--------------------------------------------------|

    1  e  +  a  2  e  +  a  3  e  +  a  4  e  +  a
e|--------------14-16-17-16-14----------------------|
b|--------14-15-------------------15-14-15-14-15-14-|
G|-----14-------------------------------------------|
D|--16----------------------------------------------|
A|--------------------------------------------------|
E|--------------------------------------------------|

    1  e  +  a  2  e  +  a  3  e  +  a  4  e  +  a
e|--------------------------------------------------|
b|--------------------------------------------------|
G|--15----14----------------------------------------|
D|--------------------------------------------------|
A|--------------------------------------------------|
E|--------------------------------------------------|

    1  e  +  a  2  e  +  a  3  e  +  a  4  e  +  a
e|--------------16----14----------------16----------|
b|--------------------------------------------------|
G|--13-14-16-14-13----11----------------13----------|
D|--------------------------------------------------|
A|--------------------------------------------------|
E|--------------------------------------------------|


[Verse 2]

    1  e  +  a  2  e  +  a  3  e  +  a  4  e  +  a
e|-16\14-----14\2---------2/14-------14\2-----------|
b|--------------------------------------------------|
G|--------------------------------------------------|
D|--------------------------------------------------|
A|--------------------------------------------------|
E|--------------------------------------------------|

    1  e  +  a  2  e  +  a  3  e  +  a  4  e  +  a
e|-2/12------12\5---------5/12-------12\7-----------|
b|--------------------------------------------------|
G|--------------------------------------------------|
D|--------------------------------------------------|
A|--------------------------------------------------|
E|--------------------------------------------------|

    1  e  +  a  2  e  +  a  3  e  +  a  4  e  +  a
e|-7/14------14\2---------2/14-------14/2-----------|
b|--------------------------------------------------|
G|--------------------------------------------------|
D|--------------------------------------------------|
A|--------------------------------------------------|
E|--------------------------------------------------|

    1  e  +  a  2  e  +  a  3  e  +  a  4  e  +  a
e|------------7\5---------5/12-------12\5-----------|
b|--------------------------------------------------|
G|--------------------------------------------------|
D|--------------------------------------------------|
A|--------------------------------------------------|
E|--------------------------------------------------|

    1  e  +  a  2  e  +  a  3  e  +  a  4  e  +  a
e|--14\-------------------2/14----------------------|
b|--------------------------------------------------|
G|--------------------------------------------------|
D|--------------------------------------------------|
A|--------------------------------------------------|
E|--------------------------------------------------|

    1  e  +  a  2  e  +  a  3  e  +  a  4  e  +  a
e|-5/12-------------------5/12----------------------|
b|--------------------------------------------------|
G|--------------------------------------------------|
D|--------------------------------------------------|
A|--------------------------------------------------|
E|--------------------------------------------------|

    1  e  +  a  2  e  +  a  3  e  +  a  4  e  +  a
e|-2/14---------------------------------------------|
b|--------------------------------------------------|
G|--------------------------------------------------|
D|--------------------------------------------------|
A|--------------------------------------------------|
E|--------------------------------------------------|

Rest for one bar


[Chorus 2] "All my life... I'm at the stakin' bar"

    1  e  +  a  2  e  +  a  3  e  +  a  4  e  +  a
e|--------------14----17----14----------------------|
b|-----------14-------------------------14----------|
G|--------14----------------------------------------|
D|--16----------------------------------------------|
A|--------------------------------------------------|
E|--------------------------------------------------|

    1  e  +  a  2  e  +  a  3  e  +  a  4  e  +  a
e|--------------------------------------14----16----|
b|--15----------------------17----------------------|
G|--------------------------------------------------|
D|--------------------------------------------------|
A|--------------------------------------------------|
E|--------------------------------------------------|

    1  e  +  a  2  e  +  a  3  e  +  a  4  e  +  a
e|--------------14----17----14----------------------|
b|-----------14-------------------------14----------|
G|--------14----------------------------------------|
D|--16----------------------------------------------|
A|--------------------------------------------------|
E|--------------------------------------------------|

    1  e  +  a  2  e  +  a  3  e  +  a  4  e  +  a
e|--------------------------------------14----16----|
b|--15----------------------17----------------------|
G|--------------------------------------------------|
D|--------------------------------------------------|
A|--------------------------------------------------|
E|--------------------------------------------------|

    1  e  +  a  2  e  +  a  3  e  +  a  4  e  +  a
e|--------------14----17----14----------------------|
b|-----------14-------------------------14----------|
G|--------14----------------------------------------|
D|--16----------------------------------------------|
A|--------------------------------------------------|
E|--------------------------------------------------|

    1  e  +  a  2  e  +  a  3  e  +  a  4  e  +  a
e|--------------------------------------------14----|
b|--15----------------------------------17----------|
G|--------------------------------------------------|
D|--------------------------------------------------|
A|--------------------------------------------------|
E|--------------------------------------------------|

    1  e  +  a  2  e  +  a  3  e  +  a  4  e  +  a
e|--------------14----19----17----------16----------|
b|-----------14-------------------------------------|
G|--------14----------------------------------------|
D|--16----------------------------------------------|
A|--------------------------------------------------|
E|--------------------------------------------------|

    1  e  +  a  2  e  +  a  3  e  +  a  4  e  +  a
e|--14----------------------------------------------|
b|--------------------------------------------------|
G|--------------------------------------------------|
D|--------------------------------------------------|
A|--------------------------------------------------|
E|--------------------------------------------------|


[Interlude] Choral vocals enter

    1  e  +  a  2  e  +  a  3  e  +  a  4  e  +  a
e|--------------16----14----------------------------|
b|--------14-15-------------------------------------|
G|-----14-------------------------------------------|
D|--16----------------------------------------------|
A|--------------------------------------------------|
E|--------------------------------------------------|

    1  e  +  a  2  e  +  a  3  e  +  a  4  e  +  a
e|--------------14-16-17-16-14----------------------|
b|--------14-15-------------------15-14-15-14-15-14-|
G|-----14-------------------------------------------|
D|--16----------------------------------------------|
A|--------------------------------------------------|
E|--------------------------------------------------|

    1  e  +  a  2  e  +  a  3  e  +  a  4  e  +  a
e|--------------------------------------------------|
b|--------------------------------------------------|
G|--15----14----------------------------------------|
D|--------------------------------------------------|
A|--------------------------------------------------|
E|--------------------------------------------------|

    1  e  +  a  2  e  +  a  3  e  +  a  4  e  +  a
e|--------------16----14----------------16----------|
b|--------------------------------------------------|
G|--13-14-16-14-13----11----------------13----------|
D|--------------------------------------------------|
A|--------------------------------------------------|
E|--------------------------------------------------|


[Verse 3] "With the holograms"

Rest for 8 bars

[Chorus 3] "All my life... I'm at the stakin' bar"

    1  e  +  a  2  e  +  a  3  e  +  a  4  e  +  a
e|--------------14----17----14----------------------|
b|-----------14-------------------------14----------|
G|--------14----------------------------------------|
D|--16----------------------------------------------|
A|--------------------------------------------------|
E|--------------------------------------------------|

    1  e  +  a  2  e  +  a  3  e  +  a  4  e  +  a
e|--------------------------------------14----16----|
b|--15----------------------17----------------------|
G|--------------------------------------------------|
D|--------------------------------------------------|
A|--------------------------------------------------|
E|--------------------------------------------------|

    1  e  +  a  2  e  +  a  3  e  +  a  4  e  +  a
e|--------------14----17----14----------------------|
b|-----------14-------------------------14----------|
G|--------14----------------------------------------|
D|--16----------------------------------------------|
A|--------------------------------------------------|
E|--------------------------------------------------|

    1  e  +  a  2  e  +  a  3  e  +  a  4  e  +  a
e|--------------------------------------14----16----|
b|--15----------------------17----------------------|
G|--------------------------------------------------|
D|--------------------------------------------------|
A|--------------------------------------------------|
E|--------------------------------------------------|

    1  e  +  a  2  e  +  a  3  e  +  a  4  e  +  a
e|--------------14----17----14----------------------|
b|-----------14-------------------------14----------|
G|--------14----------------------------------------|
D|--16----------------------------------------------|
A|--------------------------------------------------|
E|--------------------------------------------------|

    1  e  +  a  2  e  +  a  3  e  +  a  4  e  +  a
e|--------------------------------------------14----|
b|--15----------------------------------17----------|
G|--------------------------------------------------|
D|--------------------------------------------------|
A|--------------------------------------------------|
E|--------------------------------------------------|

    1  e  +  a  2  e  +  a  3  e  +  a  4  e  +  a
e|--------------14----19----17----------16----------|
b|-----------14-------------------------------------|
G|--------14----------------------------------------|
D|--16----------------------------------------------|
A|--------------------------------------------------|
E|--------------------------------------------------|

    1  e  +  a  2  e  +  a  3  e  +  a  4  e  +  a
e|--14----------------------------------------------|
b|--------------------------------------------------|
G|--------------------------------------------------|
D|--------------------------------------------------|
A|--------------------------------------------------|
E|--------------------------------------------------|


Legend

/ = slide up
\ = slide down
Suggest correction
Creating personal tab
Creating personal tab
You can edit any tab online and save it as your Personal.

You can edit, replace or remove any tab part or add personal notes – all changes will be seen only by you.

Personal tabs can be accessed anytime from any device, even offline.
Learn more »
comments
print report bad tab
1 comment total.
0 reply
Ben-neB22 10 May 06, 2017 01:19 PM

great tab!!!!

guest
You may want to rate the tab now too:
select rating
Wanna post a correction for this tab? Suggest correction