Oops, an error
Loading. Please wait.

Sleeping Powder solo tab

3,121 views 138 this week
no commentswrite comment
1 2 3 4 5
x 4
add to favorites
×
Save as Personal and add changes to this tab that will be seen only by you. Learn more ›
×
You can save this tab as Personal to edit and correct it or add notes. All changes will be seen only by you. Learn more »
launch autoscroll
font size
0
reset
how to read this tab
guitar tuner
edit
Autoscroll
slow
fast
+/-
esc
set tempo
stop
About this tab version
TAB for the finger picking acoustic guitar in Sleeping Powder. Was this info helpful? Yes No
Most of the song is synths, but for the intro, the chorus,
and the outro, there is a very nice acoustic guitar riff.

Chords----
E7 | x7675x
Am | 577555
D7 | x5453x
G  | 355433


TAB--------

[Main riff]
B|----------------|------------------------|----------------------|-------------------------|
B|----------------|------------------------|----------------------|-------------------------|
G|----7---7---7---|-5----5-----5-----5-----|-----5-----5-----5----|--4-----4-----4----4-----|
D|------6-------6-|---------7-----------7--|--------4-----------4-|-----------5----------5--|
A|--7-------7-----|---------------7--------|--5-----------5-------|-----------------5-------|
E|----------------|---5--------------------|----------------------|-----3-------------------|

Every second group of 4 bars (each chord is for one bar,) the progression will
hang on the third chord (D7) for 2 bars.

So the TAB for that instead, would be:
B|----------------|------------------------|----------------------|-----------------------------|
B|----------------|------------------------|----------------------|-----------------------------|
G|----7---7---7---|-5----5-----5-----5-----|-----5-----5-----5----|-5-----5-----5-----5-----g5--|
D|------6-------6-|---------7-----------7--|--------4-----------4-|----------4-----------4------|
A|--7-------7-----|---------------7--------|--5-----------5-------|----5-----------5------------|
E|----------------|---5--------------------|----------------------|-----------------------------|


************************************

| g   Grace note

************************************

            
            
Suggest correction
Creating personal tab
Creating personal tab
You can edit any tab online and save it as your Personal.

You can edit, replace or remove any tab part or add personal notes – all changes will be seen only by you.

Personal tabs can be accessed anytime from any device, even offline.
Learn more »
comments
print report bad tab
guest
You may want to rate the tab now too:
select rating
Wanna post a correction for this tab? Suggest correction