Oops, an error
Loading. Please wait.

Spitting Out The Demons bass

version 2
version 2

Whole song

6,269 views 1 this week
no commentswrite comment
1 2 3 4 5
x 3
add to favorites
×
Save as Personal and add changes to this tab that will be seen only by you. Learn more ›
×
You can save this tab as Personal to edit and correct it or add notes. All changes will be seen only by you. Learn more »
launch autoscroll
font size
0
reset
guitar tuner
edit
Autoscroll
slow
fast
+/-
esc
set tempo
stop
Song: Spitting Out The Demons
Artist: Gorrilaz
Difficulty: Medium
Tabbed: MastaBassa (That’s me)
Tuning: G-D-A-D

Intro
G|--------------------------------------|
D|--------------------------------------| x3
A|--------------------------------------|
D|-7/12-12-12/-7/-12--------------------|

G|-------------------|
D|-------------------| x1
A|------8-8-8--------|
D|---8---------10-11-|

Verse 1
G|--7-7-7-5-7------------------------|
D|------------7----------------------|
A|--------------5-5-3----5-3-3-----5-|
D|---------------------7-------7-----|

Verse 2
G|---------------|
D|---------------|
A|-0-0-------0---|
D|-----5-3-5---3-|   On first time don’t play the two open A’s

Verse3
G|---------------|
D|---------------|
A|-0-0-------0---|
D|-----5-3-5---0-|   

Verse 4
G|--------------------|
D|-------------3-2----|
A|0-0-------0-3-----3-|
D|----5-3-5-----------|
In the parts where there’s no real bass line there’s a very, very soft 0/1 side on the Low D string.

Order
Basically it’s the intro until the break in the bass line
Then Verse 1x A lot
Then you do
Verse 2 x1
Verse 3 x1
Verse 2 x1
Verse 4 x1
Repeat the indented as needed I’m not sure how many times
Then back to Verse 1x A Lot
 
Good Luck Have Fun!
Any Questions, Comments, Complaints, Threats please E-Mail me at
MastaBassa72090@gmail.com

            
            
Suggest correction
Creating personal tab
Creating personal tab
You can edit any tab online and save it as your Personal.

You can edit, replace or remove any tab part or add personal notes – all changes will be seen only by you.

Personal tabs can be accessed anytime from any device, even offline.
Learn more »
Give kudos to tab author, rate the tab!
1 2 3 4 5
comments
print report bad tab
guest
You may want to rate the tab now too:
select rating
Wanna post a correction for this tab? Suggest correction