Oops, an error
Loading. Please wait.

Spitting Out The Demons bass

version 3
version 3

Whole song

10,453 views 21 this week
1 commentread comment
1 2 3 4 5
x 3
add to favorites
×
Save as Personal and add changes to this tab that will be seen only by you. Learn more ›
×
You can save this tab as Personal to edit and correct it or add notes. All changes will be seen only by you. Learn more »
launch autoscroll
font size
0
reset
guitar tuner
edit
Autoscroll
slow
fast
+/-
esc
set tempo
stop
Author
Difficulty
                    ----------SPITTING OUT THE DEMONS - GORILLAZ----------

this is just MASTABASSA’s bass tab, without the “Drop D bit”
Intro
G|--------------------------------------|
D|--------------------------------------| x3
A|--------------------------------------|
D|-5/10-10-1010-\5/-10------------------|

G|--------------------|
D|--------------------| x1
A|-------\888---------|
D|--/6----------8-9---|

Verse 1
G|--7-7-7-5-7--------------------------|
D|------------7----------------------0-|
A|--------------5-5-3--0--5-3-3-0------|
D|-------------------------------------|

Verse 2
G|---------------|
D|---------------|
A|---------------|
D|-5-5-3-1-3-5-1-|  

Verse3
G|---------------|
D|---------------|
A|---------------|
D|-5-5-3-1-3-5-0-|   

Verse 4
G|--------------------|
D|-------------3-2----|
A|0-0-------0-3-----3-|
D|----5-3-5-----------|


Order

Intro   x4
Verse 1 x4
Verse 2 x1
Verse 3 x1
Verse 2 x1
Verse 4 x1
Verse 1 x4?

            
            
Suggest correction
Creating personal tab
Creating personal tab
You can edit any tab online and save it as your Personal.

You can edit, replace or remove any tab part or add personal notes – all changes will be seen only by you.

Personal tabs can be accessed anytime from any device, even offline.
Learn more »
Give kudos to tab author, rate the tab!
1 2 3 4 5
comments
print report bad tab
1 comment total.
0 reply
GrischkaBass 136 Aug 21, 2013 04:55 AM

1. This tab works in standard tuning, so I wonder why it is shown here in drop D.

2.The verses are horrible, the groove is missing in it completely:

Verse 1
G|--777-5-7------------------------|
D|----------7-------------------0--|
A|------------5--55-3-0--55-3-0----|
D|---------------------------------|

Verse 2
G|---------------|
D|---------------|
A|-0-0-------0---|
D|-----3-1-3--1--|

Verse3
G|---------------|
D|---------------|
A|-0-0-------0---|
D|-----3-1-3--0--|

Verse 4
G|--------------------|
D|-------------3p2----|
A|0-0-------03-----3--|
D|----3-1-3-----------|

3. The order of the verses is also wrong. I think I'm going to post the right tabs in an (yet) other version. It's a shame that no-one has complaint yet that this song gets so ripped apart.

guest
You may want to rate the tab now too:
select rating
Wanna post a correction for this tab? Suggest correction