Oops, an error
Loading. Please wait.

Spitting Out The Demons bass

version 4
version 4

Whole song

1,821 views 6 this week
2 commentsread comments
1 2 3 4 5
x 6
add to favorites
×
Save as Personal and add changes to this tab that will be seen only by you. Learn more ›
×
You can save this tab as Personal to edit and correct it or add notes. All changes will be seen only by you. Learn more »
launch autoscroll
font size
0
reset
guitar tuner
edit
Autoscroll
slow
fast
+/-
esc
set tempo
stop
Author
So I took a try to finally get it right and I think I'm very close. I'm thankful \
for all suggestions. I used the official music video to tab the song:

http://www.youtube.com/watch?v=MPn7l5a9sKg

Don't forget the distortion and the Bass to the max! ;)

Start 0:24

Intro
G|--------------------------------------|
D|--------------------------------------| x3
A|--------------------------------------|
E|-5/10-10-1010-\5/-10------------------|

0:32

G|--------------------|
D|--------------------| x1
A|-------\888---------|
E|--/6----------8-9---|

Repeat those 2 patterns in order 4 times until 1:09

No bass until 1:54, you play this:

 Verse 1
G|--777-5-7----------------------|
D|----------7-----------------0--|
A|------------5---53-0---53-0----|   x4
E|-------------------------------|

The 4th time, directly after D-0 you have to directly play this (It seems to me that the 
song is actually played with 2 basses)

2:17 Bridge part

Part 1a
G|---------------|
D|---------------|
A|-0-0-------0---|
E|-----3-1-3--1--|

Part 2
G|---------------|
D|---------------|
A|-0-0-------0---|
E|-----3-1-3--0--|

Part 1a
G|---------------|
D|---------------|
A|-0-0-------0---|
E|-----3-1-3--1--|

Part 3
G|------------------|
D|-------------3p2--|
A|0-0-------03-----3|
E|----3-1-3---------|

Part 1b
G|------------|
D|------------|
A|--------0---|
E|-3-1-3---1--|


Part 2 > Part 1a > Part 3


At 2:40 Play the Verse 1 again:

Verse 1
G|--777-5-7----------------------|
D|----------7-----------------0--|
A|------------5---53-0---53-0----|   x8
E|-------------------------------|

Break at 3:27- 3:32, than play again Verse 1 till the end of the song.

I hope you enjoy it :)

            
            
Suggest correction
Creating personal tab
Creating personal tab
You can edit any tab online and save it as your Personal.

You can edit, replace or remove any tab part or add personal notes – all changes will be seen only by you.

Personal tabs can be accessed anytime from any device, even offline.
Learn more »
comments
print report bad tab
2 comments total.
0 reply
firdentikit 10 Jan 28, 2016 03:11 PM

RIGHT HERE

0 reply
TreaganBass7 77 Jul 09, 2016 02:44 PM

perfect! great job

guest
You may want to rate the tab now too:
select rating
Wanna post a correction for this tab? Suggest correction