Oops, an error
Loading. Please wait.

Submission bass

385 views 1 this week
no commentswrite comment
1 2 3 4 5
x 3
add to favorites
×
Save as Personal and add changes to this tab that will be seen only by you. Learn more ›
×
You can save this tab as Personal to edit and correct it or add notes. All changes will be seen only by you. Learn more »
launch autoscroll
font size
0
reset
guitar tuner
edit
Autoscroll
slow
fast
+/-
esc
set tempo
stop
[Verse]
G|------------|-------------|-------------|-------------||
D|------------|-------------|-------------|-------------||
A|-7--7-------|-7--7--------|-7--7--------|-9--9--7--7--||
E|------------|-------------|-------------|-------------||
                                                         |
G|------------|-------------|-------------|-------------||
D|------------|-------------|-------------|-6--6--------||
A|-6--6-------|-6--6--------|-------------|-------------||
E|------------|-------------|-4--4--------|-------------||
                                                         | x2
G|------------|-------------|-------------|-------------||
D|------------|-------------|-------------|-------------||
A|-7--7-------|-7--7--------|-7--7--------|-9--9--7--7--||
E|------------|-------------|-------------|-------------||
                                                         |
G|------------|-------------|-------------|-------------||
D|------------|-------------|-------------|-------------||
A|-6--6-------|-6--6--------|-6--6--------|-------------||
E|------------|-------------|-------------|-4--4--4--4--||

[Chorus]
G|------------|-------------|-------------|-------------|
D|------------|-------------|-------------|-------------|
A|-7--7-------|-7--7--------|-7--7--------|-9--9--7--7--|
E|------------|-------------|-------------|-------------|

G|------------|-------------|-------------|-------------|
D|------------|-------------|-------------|-6--6--------|
A|-6--6-------|-6--6--------|-------------|-------------|
E|------------|-------------|-4--4--------|-------------|

G|------------|-------------|-------------|-------------|
D|------------|-------------|-------------|-------------|
A|-7--7-------|-7--7--------|-7--7--------|-9--9--7--7--|
E|------------|-------------|-------------|-------------|

G|------------|-------------|-------------|-------------|
D|------------|-------------|-------------|-------------|
A|-6--6-------|-6--6--------|-6--6--------|-------------|
E|------------|-------------|-------------|-4--4--4--4--|

G|------------|-------------|-------------|-------------|
D|------------|-------------|-------------|-------------|
A|-7--7-------|-7--7--------|-7--7--------|-9--9--7--7--|
E|------------|-------------|-------------|-------------|

G|------------|-------------|-------------|-------------|
D|------------|-------------|-------------|-6--6--------|
A|-6--6-------|-6--6--------|-------------|-------------|
E|------------|-------------|-4--4--------|-------------|

G|------------|-------------|-------------|-------------|
D|------------|-------------|-------------|-------------|
A|-7--7-------|-7--7--------|-7--7--------|-9--9--7--7--|
E|------------|-------------|-------------|-------------|

G|------------|-------------|-------------|-------------|
D|------------|-------------|-------------|-------------|
A|-6--6-------|-6--6--------|-------------|-------------|
E|------------|-------------|-------------|-------------|

[Verse]
G|------------|-------------|-------------|-------------||
D|------------|-------------|-------------|-------------||
A|-7--7-------|-7--7--------|-7--7--------|-9--9--7--7--||
E|------------|-------------|-------------|-------------||
                                                         |
G|------------|-------------|-------------|-------------||
D|------------|-------------|-------------|-6--6--------||
A|-6--6-------|-6--6--------|-------------|-------------||
E|------------|-------------|-4--4--------|-------------||
                                                         | x2
G|------------|-------------|-------------|-------------||
D|------------|-------------|-------------|-------------||
A|-7--7-------|-7--7--------|-7--7--------|-9--9--7--7--||
E|------------|-------------|-------------|-------------||
                                                         |
G|------------|-------------|-------------|-------------||
D|------------|-------------|-------------|-------------||
A|-6--6-------|-6--6--------|-6--6--------|-------------||
E|------------|-------------|-------------|-4--4--4--4--||


[Chorus]
G|------------|-------------|-------------|-------------|
D|------------|-------------|-------------|-------------|
A|-7--7-------|-7--7--------|-7--7--------|-9--9--7--7--|
E|------------|-------------|-------------|-------------|

G|------------|-------------|-------------|-------------|
D|------------|-------------|-------------|-6--6--------|
A|-6--6-------|-6--6--------|-------------|-------------|
E|------------|-------------|-4--4--------|-------------|

G|------------|-------------|-------------|-------------|
D|------------|-------------|-------------|-------------|
A|-7--7-------|-7--7--------|-7--7--------|-9--9--7--7--|
E|------------|-------------|-------------|-------------|

G|------------|-------------|-------------|-------------|
D|------------|-------------|-------------|-------------|
A|-6--6-------|-6--6--------|-6--6--------|-------------|
E|------------|-------------|-------------|-4--4--4--4--|

G|------------|-------------|-------------|-------------|
D|------------|-------------|-------------|-------------|
A|-7--7-------|-7--7--------|-7--7--------|-9--9--7--7--|
E|------------|-------------|-------------|-------------|

G|------------|-------------|-------------|-------------|
D|------------|-------------|-------------|-6--6--------|
A|-6--6-------|-6--6--------|-------------|-------------|
E|------------|-------------|-4--4--------|-------------|

G|------------|-------------|-------------|-------------|
D|------------|-------------|-------------|-------------|
A|-7--7-------|-7--7--------|-7--7--------|-9--9--7--7--|
E|------------|-------------|-------------|-------------|

G|------------|-------------|-------------|-------------|
D|------------|-------------|-------------|-------------|
A|-6--6-------|-6--6--------|-------------|-------------|
E|------------|-------------|-------------|-------------|

[Interlude]
G|------------|-------------|-------------|-------------|
D|------------|-------------|-------------|-------------|
A|-7--7-------|-7--7--------|-7--7--------|-9--9--7--7--|
E|------------|-------------|-------------|-------------|

G|------------|-------------|-------------|-------------|
D|------------|-------------|-------------|-6--6--------|
A|-6--6-------|-6--6--------|-------------|-------------|
E|------------|-------------|-4--4--------|-------------|

G|------------|-------------|-------------|-------------|
D|------------|-------------|-------------|-------------|
A|-7--7-------|-7--7--------|-7--7--------|-9--9--7--7--|
E|------------|-------------|-------------|-------------|

G|------------|-------------|-------------|-------------|
D|------------|-------------|-------------|-------------|
A|-6--6-------|-6--6--------|-6--6--------|-------------|
E|------------|-------------|-------------|-4--4--4--4--|

[Verse]
G|------------|-------------|-------------|-------------||
D|------------|-------------|-------------|-------------||
A|-7--7-------|-7--7--------|-7--7--------|-9--9--7--7--||
E|------------|-------------|-------------|-------------||
                                                         |
G|------------|-------------|-------------|-------------||
D|------------|-------------|-------------|-6--6--------||
A|-6--6-------|-6--6--------|-------------|-------------||
E|------------|-------------|-4--4--------|-------------||
                                                         | x2
G|------------|-------------|-------------|-------------||
D|------------|-------------|-------------|-------------||
A|-7--7-------|-7--7--------|-7--7--------|-9--9--7--7--||
E|------------|-------------|-------------|-------------||
                                                         |
G|------------|-------------|-------------|-------------||
D|------------|-------------|-------------|-------------||
A|-6--6-------|-6--6--------|-6--6--------|-------------||
E|------------|-------------|-------------|-4--4--4--4--||

G|------------|-------------|-------------|-------------|
D|------------|-------------|-------------|-------------|
A|-7--7-------|-7--7--------|-7--7--------|-9--9--7--7--|
E|------------|-------------|-------------|-------------|

G|------------|-------------|-------------|-------------|
D|------------|-------------|-------------|-6--6--------|
A|-6--6-------|-6--6--------|-------------|-------------|
E|------------|-------------|-4--4--------|-------------|

G|------------|-------------|-------------|-------------|
D|------------|-------------|-------------|-------------|
A|-7--7-------|-7--7--------|-7--7--------|-9--9--7--7--|
E|------------|-------------|-------------|-------------|

G|------------|-------------|-------------|-------------|
D|------------|-------------|-------------|-------------|
A|-6--6-------|-6--6--------|-------------|-------------|
E|------------|-------------|-------------|-------------|

[Chorus]
G|------------|-------------|-------------|-------------|
D|------------|-------------|-------------|-------------|
A|-7--7-------|-7--7--------|-7--7--------|-9--9--7--7--|
E|------------|-------------|-------------|-------------|

G|------------|-------------|-------------|-------------|
D|------------|-------------|-------------|-6--6--------|
A|-6--6-------|-6--6--------|-------------|-------------|
E|------------|-------------|-4--4--------|-------------|

G|------------|-------------|-------------|-------------|
D|------------|-------------|-------------|-------------|
A|-7--7-------|-7--7--------|-7--7--------|-9--9--7--7--|
E|------------|-------------|-------------|-------------|

G|------------|-------------|-------------|-------------|
D|------------|-------------|-------------|-------------|
A|-6--6-------|-6--6--------|-6--6--------|-------------|
E|------------|-------------|-------------|-4--4--4--4--|

G|------------|-------------|-------------|-------------|
D|------------|-------------|-------------|-------------|
A|-7--7-------|-7--7--------|-7--7--------|-9--9--7--7--|
E|------------|-------------|-------------|-------------|

G|------------|-------------|-------------|-------------|
D|------------|-------------|-------------|-6--6--------|
A|-6--6-------|-6--6--------|-------------|-------------|
E|------------|-------------|-4--4--------|-------------|

G|------------|-------------|-------------|-------------|
D|------------|-------------|-------------|-------------|
A|-7--7-------|-7--7--------|-7--7--------|-9--9--7--7--|
E|------------|-------------|-------------|-------------|

G|------------|-------------|-------------|-------------|
D|------------|-------------|-------------|-------------|
A|-6--6-------|-6--6--------|-------------|-------------|
E|------------|-------------|-------------|-------------|

            
            
Suggest correction
Creating personal tab
Creating personal tab
You can edit any tab online and save it as your Personal.

You can edit, replace or remove any tab part or add personal notes – all changes will be seen only by you.

Personal tabs can be accessed anytime from any device, even offline.
Learn more »
Give kudos to tab author, rate the tab!
1 2 3 4 5
comments
print report bad tab
guest
You may want to rate the tab now too:
select rating
Wanna post a correction for this tab? Suggest correction