Oops, an error
Loading. Please wait.

Welcome To The World Of The Plastic Beach bass

version 1
version 1

Whole song

2,543 views 1 this week
no commentswrite comment
1 2 3 4 5
x 4
add to favorites
×
Save as Personal and add changes to this tab that will be seen only by you. Learn more ›
×
You can save this tab as Personal to edit and correct it or add notes. All changes will be seen only by you. Learn more »
launch autoscroll
font size
0
reset
guitar tuner
edit
Autoscroll
slow
fast
+/-
esc
set tempo
stop
Author
Difficulty
Gorillaz - Welcome To The World of The Plastic Beach

Opens with the hypnotic brass, and the bass will come in straight away at 0:12:

G----------------------------------------|
D------14----12----10~---12--------------|
A----------------------------------------|
E----------------------------------------|


G----------------------------------------|
D------14----12----10~---12--------------|
A--12------------------------12----------|
E----------------------------------------|


G----------------------------------------|
D------14----12----10~---12--------------|
A----------------------------------------|
E----------------------------------------|


G----------------------------------------|
D------10~---12----12----10--14~~--------|
A--------------------------------12~~----|
E----------------------------------------|


G------16~~--14--16--14------------------|
D------------------------14--------------|
A----------------------------15----------|
E----------------------------------------|

All of that should be repeated throughout half the song.


Then you get a change of pace at 2:01, which goes something like this:

G--------------------------------------------------------------------------|
D---------55---------------------------------------------------------------|
A-------------------------------------------55555555-----------------------|
E---333333----00000000--77777777--55555555---------------------------------|


Try it an octave higher if you like, but that should be repeated all the way to the end.


And that's about it! Rate/comment thanks! :)

            
            
Suggest correction
Creating personal tab
Creating personal tab
You can edit any tab online and save it as your Personal.

You can edit, replace or remove any tab part or add personal notes – all changes will be seen only by you.

Personal tabs can be accessed anytime from any device, even offline.
Learn more »
comments
print report bad tab
guest
You may want to rate the tab now too:
select rating
Wanna post a correction for this tab? Suggest correction