Oops, an error
Loading. Please wait.

Welcome To The World Of The Plastic Beach bass

version 2
version 2

Whole song

8,298 views 15 this week
1 commentread comment
1 2 3 4 5
x 6
add to favorites
×
Save as Personal and add changes to this tab that will be seen only by you. Learn more ›
×
You can save this tab as Personal to edit and correct it or add notes. All changes will be seen only by you. Learn more »
launch autoscroll
font size
0
reset
guitar tuner
edit
Autoscroll
slow
fast
+/-
esc
set tempo
stop
Author
Difficulty
-------------------------------------------------------------------------------
	    Welcome to the World of the PLastic Beach - Gorillaz
-------------------------------------------------------------------------------

Tabbed By : Govind Sidhu	
e-mail: nugiboy@hotmail.com	

Tuning: Standard

Notes: Spacing between notes in tab roughly correspond to timing but you should 
listen to the track to get it right. Also i may be wrong on octaves at some points
as i'm tabbing this from guitar, so let me know where i should be and i'll change
it. The 7b8 variation of the first note should be a quick and short bend and is almost
a ghost note.

INTRO

G|--------|--------|--------|--------|----------|--------|---------|--------|
D|--------|--------|--------|--------|----------|--------|--------7|---(7)--|
A|7-5-3--5|-------0|7-5-3--5|--0-----|7b8-5-3--5|----3-5-|5-3-7----|--------|
E|--------|--------|--------|--------|----------|--------|---------|--------|

G|--------------|--------|--------|--------|----------|--------|---------|--------|
D|9-9-5h7p5-----|--------|--------|--5---7-|----------|--------|-------7-|---(7)--|
A|----------5--3|--------|7-5-3--5|--------|7b8-5-3--5|------3-|5-3-7----|--------|
E|--------------|--------|5-------|--------|----------|--------|---------|--------|

ORCHESTRA ENTERS

G|--------|--------|--------|--------|----------|--------|---------|--------|
D|--------|--------|--------|--------|----------|--------|--------7|---(7)--|
A|7-5-3--5|-------0|7-5-3--5|--0-----|7b8-5-3--5|----3-5-|5-3-7---0|---(0)--|
E|--------|--------|--------|--------|----------|--------|---------|--------|

G|------------|--------|--------|--------|----------|--------|---------|--------|
D|9-5h7p5-----|--------|--------|--------|----------|--------|-------7-|---(7)--|
A|--------5--3|--------|7-5-3--5|------0-|7b8-5-3--5|------3-|5-3-7----|--------|
E|------------|--------|5-------|--------|----------|--------|---------|--------|

G|------------|--------|----------|--------|----------|--------|---------|--------|
D|9-5h7p5-----|--------|----------|--------|----------|--------|-------7-|---(7)--|
A|--------5-3-|--------|7b8-5-3--5|-------0|7b8-5-3--5|------3-|5-3-7----|--------|
E|------------|--------|----------|--------|----------|--------|---------|--------|

G|----|
D|----|
A|7-5-|
E|----|

ROLLING BASSLINE (WIN)

G|----------------------------------------------------------------|
D|------------5-5-------------------------------------------------|
A|--------------------------------2-2-2-2-2-2-2-2-0-0-0-0-0-0-0-0-|
E|3-3-3-3-3-3-----0-0-0-0-0-0-0-0---------------------------------|

G|----------------------------------------------------------------|
D|---------------------------[5]----------------------------------|
A|5-5-5-5-5-5-5-5---------------------------------2-2-2-2-2-2-2-2-|
E|----------------3-3-3-3-3-3-3-3-0-0-0-0-0-0-0-0-----------------|

G|----------------------------------------------------------------|
D|--------------------------------------------5-5-----------------|
A|0-0-0-0-0-0-0-0-5-5-5-5-5-5-5-5---------------------------------|
E|--------------------------------3-3-3-3-3-3-----0-0-0-0-0-0-0-0-|

G|----------------------------------------------------------------|
D|------------------------------------------------------------5---|
A|2-2-2-2-2-2-2-2-0-0-0-0-0-0-0-0-5-5-5-5-5-5-5-5-----------------|
E|------------------------------------------------3-3-3-3-3-3---3-|

G|----------------------------------------------------------------|
D|----------------------------------------------------------------|
A|----------------2-2-2-2-2-2-2-2-----------------5-5-5-5-5-5-5-5-|
E|0-0-0-0-0-0-0-0-----------------5-5-5-5-5-5-5-5-----------------|

(This is repeated 3 times but on the second and third time, you play
the [5] on D instead of the 3 on E)



| /  slide up
| \  slide down
| h  hammer-on
| p  pull-off
| b  bend
| r  release
| ~  vibrato
| +  harmonic
| x  Mute note
===============================================================================

            
            
Suggest correction
Creating personal tab
Creating personal tab
You can edit any tab online and save it as your Personal.

You can edit, replace or remove any tab part or add personal notes – all changes will be seen only by you.

Personal tabs can be accessed anytime from any device, even offline.
Learn more »
comments
print report bad tab
1 comment total.
0 reply
leydgss 10 Oct 22, 2012 12:40 PM

Man I love that bassline during the last section.. Super sexy

guest
You may want to rate the tab now too:
select rating
Wanna post a correction for this tab? Suggest correction