Oops, an error
Loading. Please wait.

White Light bass

version 1
version 1

Whole song

Interactive

10,298 views 21 this week
2 commentsread comments
1 2 3 4 5
x 11
add to favorites
×
Save as Personal and add changes to this tab that will be seen only by you. Learn more ›
×
You can save this tab as Personal to edit and correct it or add notes. All changes will be seen only by you. Learn more »
launch autoscroll
font size
0
reset
guitar tuner
edit
Autoscroll
slow
fast
+/-
esc
set tempo
stop
Author
White Light
Artist: Gorillaz
Album: Demon days

tabbed by chhang7 (chhang7@hotmail.com)
 
A no-nonsense song


 
Verse
G|--------------------------------------|  
D|--------------------------------------|  
A|--------------------------------------|  
E|-5-5-5-5-7---0-0—-7-10--7-10--7-10-12-|



Then theres that guiatar
keyboard, Synth thing
then its back to the

End part
G|--------------------------|  
D|--------------------------|  
A|--------------------------|  
E|--5555-7-7-10-10-10-12----|

            
            
Suggest correction
Creating personal tab
Creating personal tab
You can edit any tab online and save it as your Personal.

You can edit, replace or remove any tab part or add personal notes – all changes will be seen only by you.

Personal tabs can be accessed anytime from any device, even offline.
Learn more »
comments
print report bad tab
2 comments total.
0 reply
Tothe5Boroughs 10 Nov 06, 2013 01:19 PM

Goddamn right no-nonsense.

0 reply
Mr-Hurdy-Gurdy 10 Mar 13, 2014 04:02 PM

Verse
G|---------------------------------------|
D|---------------------------------------|
A|-0-0-0-0------------5----5---5-7-------|
E|---------7---0-0?-7----7---7-----------|

guest
You may want to rate the tab now too:
select rating
Wanna post a correction for this tab? Suggest correction