Oops, an error
Loading. Please wait.

Ocean Tab

version 1
version 1

Whole song

Interactive

515 views 1 this week
no commentswrite comment
1 2 3 4 5
2 more votes to show rating
add to favorites
launch autoscroll
font size
0
reset
how to read this tab
guitar tuner
Autoscroll
slow
fast
+/-
esc
set tempo
stop
Help us to improve Ultimate-Guitar.com Take our survey!
×
From the album "Stare" (1996)

 Intro:
 e-8---7----------------0------------8-7-------------0-----------------|
 H---5---5-----0-1--3-----3--------0-----5-----0-1-3---3-------0-------|
 G-----------2--------2---------1------------2-------------------1-----|
 D-7-------3--------0----------------7-----3-------0---------4---------|
 A----------------------------2----------------------------2-----------|
 E--------------------------0----------------------------0-------------|

 Verse:
    Am                                                     E
 e---------------------------------------------------------------------|
 H---------1---------------3---1-------1-------------------------0-----|
 G-----2-------2-------2---------2---2---2-----3---------------1-------|
 D---2---2---2-------2---2---2-----3---------3---3-----3---------------|
 A-0-------------0-------------------------1---------3---3---2---------|
 E-----------------3-------------------------------1-------0-----------|
   ^^^^^^^^^^^^^^^^^^^^^^^^^^^^^^^^^^^^^^^^^^^^^^^^^^^^^^^   A
 e-----------------------------------------------------------------0----|
 H-----------------------------------------------------------------2----|
 G-//---//---//THE SAME-//---//----//---//---//--//----//--------2------|
 D-------------------------------------------------------------2--------|
 A-----------------------------------------------------------0----------|
 E---------------------------------------------------------0------------|

 Chorus: Dm G Em F C D F G
Suggest correction
Give kudos to tab author, rate the tab!
1 2 3 4 5
comments
print report bad tab
guest
You may want to rate the tab now too:
select rating
Wanna post a correction for this tab? Suggest correction