Oops, an error
Loading. Please wait.

Try To Find Me Bass Tab

version 1
version 1

Whole song

Interactive

2,700 views 3 this week
no commentswrite comment
1 2 3 4 5
3 more votes to show rating
add to favorites
launch autoscroll
font size
0
reset
guitar tuner
Autoscroll
slow
fast
+/-
esc
set tempo
stop
Help us to improve Ultimate-Guitar.com Take our survey!
×
Author
----------------------------------------------------------------------------
			     TRY TO FIND ME--Gorky Park
----------------------------------------------------------------------------

Tabbed By : tedstigers
e-mail: tedcorby@yahoo.com

Tuning:standard

INTRO/CHORUS
G|-------|--------|               -------|
D|-------|--------|               -------|
A|-------|--------|               -------|
E|-0--0--|--2--5--|(PLAY 4 X THEN)--5----|

VERSE
G|--------|--------|--------|-------|
D|--------|--------|--------|-------|
A|--4-----|--------|-----5--|--3----|
E|-----5--|--2--4--|--5-----|-------| PLAY 2 X


SOLO
G|--------|--------|--------|--------|
D|--------|--------|--------|--------|
A|--4-----|--------|-----2--|-----2--|
E|-----5--|--2--4--|--5-----|--5-----| PLAY 8 X

BRIDGE
G|--------|-------|--------|-------|
D|--------|-------|--------|-------|
A|--------|-------|-----3--|-------|
E|--5-----|--5----|--3-----|--0----|PLAY 4 X THEN 1 BAR REST

INTRO

VERSE 1
When the rain is pouring down
And no one is around
All the doors are closed
You're a stranger in this town
Wandering around and you feel lost

CHORUS
Please try to find me and I'll try to find you
You know I need you just like you need me
Please don't give up cause we're almost together
We've almost made it, hold on and you'll see

VERSE 2
When nobody wants to hear
What you want to say
And you feel down when your hope has disappeared
Like a morning train
You can't slow down

CHORUS

SOLO

BRIDGE
I'm just like you,
Oh you know it's true
Don't give up my friend
This is not the end

CHORUS OUT
Suggest correction
Give kudos to tab author, rate the tab!
1 2 3 4 5
comments
print report bad tab
guest
You may want to rate the tab now too:
select rating
Wanna post a correction for this tab? Suggest correction