Oops, an error
Loading. Please wait.

Celestial Nature tab

by Gorod
1,495 views 3 this week
2 commentsread comments
1 2 3 4 5
x 5
add to favorites
×
Save as Personal and add changes to this tab that will be seen only by you. Learn more ›
×
You can save this tab as Personal to edit and correct it or add notes. All changes will be seen only by you. Learn more »
launch autoscroll
font size
0
reset
how to read this tab
guitar tuner
edit
Autoscroll
slow
fast
+/-
esc
set tempo
stop
Tuning: D (D G C F A D)
Tempo: 160 bpm

[0:00]
      Q  S S S S S S  E E  E    +E   S  S  S  S  S  S  S  S  S  S S  S S  S
D|--------------------------|---------------------------------------------|
A|o-12--------------12---13-|-(13)-------------------------------9-13-9---|
F|---9---------------9---10-|-(10)-------10-13-10----------10-13--------13|
C|--10--------------10---11-|-(11)-10-11----------11-10-11----------------|
G|o-----0-0-0-0-0-0----0----|---------------------------------------------|
D|--------------------------|---------------------------------------------|

   Q  S S S S S S  E E  S  S    +E  S S S S  S E S S S S S S S
D|---------------------------|----------------------------------|
A|----------------12---12-10-|-(10)---------10-8----------------|
F|-9---------------9----9--7-|--(7)----------7-5----------------|
C|----------------10---10--8-|--(8)----------8-6-6-6-6-8-8-6-6--|
G|----0-0-0-0-0-0----0-------|------0-0-0-0---------------------|
D|---------------------------|----------------------------------|

    Q  S S S S S S  E E  E    +E   S  S  S  S  S  S  S  S  S  S S  S S  S
D|-------------------------|-----------------------------------------9-13--|
A|-12--------------12---13-|-(13)-------------------------------9-13-------|
F|--9---------------9---10-|-(10)-------10-13-10----------10-13------------|
C|-10--------------10---11-|-(11)-10-11----------11-10-11------------------|
G|-----0-0-0-0-0-0----0----|-----------------------------------------------|
D|-------------------------|-----------------------------------------------|

   Q   E S S S S S S S S  S  S    +E  S S S S  S E S S S S S S S
D|-----------------------------|---------------------------------|
A|----12-----------------12-10-|-(10)---------10-8---------------|
F|-----9------------------9--7-|--(7)----------7-5---------------|
C|----10-----------------10--8-|--(8)----------8-6-6-6-6-8-8-6-6-|
G|-------0-0-0-0-0-0-0-0-------|------0-0-0-0--------------------|
D|-----------------------------|---------------------------------|

    q   Q   S  S  S  S  S  S  e    +E   Q   S  S  S  S  S  S  q
D|------------------------------|--------------------------------|
A|-12--12--------------------13-|-(13)-13--------------------12--|
F|--9---9--------------------10-|-(10)-10---------------------9--|
C|-10--10--------------------11-|-(11)-11--------------------10--|
G|---------12-12-12-12-12-12----|----------13-13-13-13-13-13-----|
D|------------------------------|--------------------------------|

                                 (2/4)
    Q   S  S  S  S  S  S  q   E    +E   E S  S S S
D|------------------------------|-------------------|
A|-12--------------------10--10-|-(10)-11-----------|
F|--9---------------------7---7-|--(7)--8-8-11-8----|
C|-10---------------------8---8-|--(8)--9--------9--|
G|-----12-12-12-12-12-12--------|-------------------|
D|------------------------------|-------------------|

(4/4)
    q   Q   S  S  S  S  S  S  e    +E   Q   S  S  S  S  S  S  q
D|------------------------------|--------------------------------|
A|-12--12--------------------13-|-(13)-13--------------------15--|
F|--9---9--------------------10-|-(10)-10--------------------12--|
C|-10--10--------------------11-|-(11)-11--------------------13--|
G|---------12-12-12-12-12-12----|----------13-13-13-13-13-13-----|
D|------------------------------|--------------------------------|

                                 (3/4)
    Q   S  S  S  S  S  S  Q   E    +E   E S  S S S S  S S S
D|------------------------------|------------------------------|
A|-15--------------------10--10-|-(10)-11---------------------o|
F|-12---------------------7---7-|--(7)--8-8-11-8---8-11-8------|
C|-13---------------------8---8-|--(8)--9--------9--------9----|
G|-----15-15-15-15-15-15--------|-----------------------------o|
D|------------------------------|------------------------------|

 [0:47]
                                                     (2/4)
       |-3--|  |--3--|
   Q   E  E E  E  E  E   E  S  S S  S S  S S  S S  S    S  S  S S Q
D|----------------------|-----------------------------|---------------|
A|-12--11-10-9----------|---------9-12-9----9-12-9----|----------9----|
F|-------------12-11-10-|---10-11--------11--------11-|-10-11-12------|
C|----------------------|-----------------------------|---------------|
G|----------------------|-----------------------------|---------------|
D|----------------------|-----------------------------|---------------|

(4/4)
   Q  E E E E E E   E E E E E E E E
D|----------------|-----------------|
A|-6--------------|---9-9-9-9-9-9-9-|
F|-7--------------|---7-7-7-7-7-7-7-|
C|-8--------------|---6-6-6-6-6-6-6-|
G|-8--8-8-8-8-8-8-|-8-8-8-8-8-8-8-8-|
D|-6--6-6-6-6-6-6-|-6-6-6-6-6-6-6-6-|

[0:53]
      T      T    T    T      T      T
      S S S  S S  S S  S S S  S S S  S S S  (4x)
D|-----------------------------------------|
A|o---------------------------------------o|
F|-----------------------------------------|
C|---------13p6-------------13p6h8---------|
G|o-13p6h8------14p6-13p6h8--------14p6h8-o|
D|-----------------------------------------|

[0:59]
      T      T    T    T      T      T
      S S S  S S  S S  S S S  S S S  S S S  (8x)
D|-----------------------------------------|
A|o---------------------------------------o|
F|-----------------------------------------|
C|---------14p7-------------14p7h9---------|
G|o-14p7h9------15p7-14p7h9--------15p7h9-o|
D|-----------------------------------------|

[1:11]
   E E S S S S S S Q  E   E S S S S S S S S S S S S S S
D|----------------------|--------------------------------|
A|----------------------|--------------------------------|
F|----------------------|-------6-9-6-------6-9-6--------|
C|-6---6-6-6-6-7-6----6-|---6-7-------7-6-7-------7-6-7--|
G|----------------------|--------------------------------|
D|----------------------|--------------------------------|

   E E S S S S S S Q  S S   E S S S S S S S S S S S S S  S
D|------------------------|---------------------------9-11-|
A|------------------------|-----------------------7-9------|
F|---------------6--------|-------6-9-6-------6-9----------|
C|-6---6-6-6-6-7------6-7-|---6-7-------7-6-7--------------|
G|------------------------|--------------------------------|
D|------------------------|--------------------------------|

   Q  S S S S E E E E   E S S S S S S S S S S S S S S
D|--------------------|-------------------------------|
A|--------------------|-------------------9-7-9-7-----|
F|--------------------|---6-8-6-------6-8---------8-6-|
C|----6-6-6-6-7-6-6-7-|---------7-6-7-----------------|
G|--------------------|-------------------------------|
D|--------------------|-------------------------------|

   E E S S S S S S S S S S E   +E  Q  S S S S S Q  S
D|---------------------------|-----------------------|
A|---------------------------|-----9------------7----|
F|---------------------------|-----6------------4----|
C|-6---6-6-6-6-7-6-6-6-6-6-7-|-(7)-7--5-5-5-5-5-5----|
G|---------------------------|-----------------------|
D|---------------------------|-----------------------|

 [1:35]
  |----6----| |-----6-----| |----6----| |-----6-----|
  S S S S S S S S S S  S  S S S S S S S S S  S  S S S
D|-----------------------------------------------------|
A|-----------------------------------------------------|
F|-6-6-6-6-6-6-------------------------------------7-7-|
C|-------------9-9-7-7-10-10-9-9-9-9-9-9-9-9-10-10-----|
G|-----------------------------------------------------|
D|-----------------------------------------------------|

  |-----6-----| |----6----| |----6----| |----6----|
  S S S S  S  S S S S S S S S S S S S S S S S S S S
D|----------------------------------------------------|
A|----------------------------------------------------|
F|-8-8-7-7--------------------------------------------|
C|---------10-10-9-9-9-9-9-9-9-9-9-9-9-9-9-9-9-9-9-9--|
G|----------------------------------------------------|
D|----------------------------------------------------|

   |------6-------| |----6----| |----6----| |----6----|
   S  S  S  S  S  S S S S S S S S S S S S S S S S S S S
D|-------------------------------------------------------|
A|-------------------------------------------------------|
F|-10-10-10-10-10-10-9-9-8-8-7-7-------------------------|
C|-------------------------------9-9-9-9-9-9-6-6-7-7-8-8-|
G|-------------------------------------------------------|
D|-------------------------------------------------------|

  |----6----| |----6----| |----6----| |----6----|
  S S S S S S S S S S S S S S S S S S S S S S S S
D|--------------------------------------------------|
A|--------------------------------------------------|
F|--------------------------------------------------|
C|-9-9-8-8-7-7-5-5-5-5-5-5-5-5-5-5-5-5-5-5-5-5-5-5--|
G|--------------------------------------------------|
D|--------------------------------------------------|

  |----6----| |-----6-----| |----6----| |-----6-----|
  S S S S S S S S S S  S  S S S S S S S S S  S  S S S
D|-----------------------------------------------------|
A|-----------------------------------------------------|
F|-------------------------------------------------7-7-|
C|-6-6-6-6-6-6-7-7-6-6-10-10-9-9-9-9-9-9-9-9-10-10-----|
G|-----------------------------------------------------|
D|-----------------------------------------------------|

  |-----6-----| |----6----|  |-------6------|  |-------6------|
  S S S S  S  S S S S S S S  S  S  S  S  S  S  S  S  S  S  S  S
D|---------------------------------------------------------------|
A|---------------------------------------------12-12-12-12-12-12-|
F|-8-8-7-7-------------------10-10-10-10-10-10-------------------|
C|---------10-10-9-9-9-9-9-9-------------------------------------|
G|---------------------------------------------------------------|
D|---------------------------------------------------------------|

   |------6-------|  |------6-------|  |------6-------|  |------6-------|
   S  S  S  S  S  S  S  S  S  S  S  S  S  S  S  S  S  S  S  S  S  S  S  S
D|-------------------------------------------------------------------------|
A|-------------------------------------------------------------------------|
F|-14-14-14-14-14-14-13-13-12-12-11-11-------------------------------------|
C|-------------------------------------13-13-13-13-13-13-10-10-11-11-12-12-|
G|-------------------------------------------------------------------------|
D|-------------------------------------------------------------------------|

   |------6-------|  |------6-------|  |------6-------|  |------6-------|
   S  S  S  S  S  S  S  S  S  S  S  S  S  S  S  S  S  S  S  S  S  S  S  S
D|--------------------------------------------------------------------------|
A|--------------------------------------------------------------------------|
F|--------------------------------------------------------------------------|
C|-13-13-12-12-11-11-10-10-10-10-10-10-10-10-10-10-10-10-10-10-10-10-10-10--|
G|--------------------------------------------------------------------------|
D|--------------------------------------------------------------------------|

  |-------6------|   |----6----| |-----6-----|
  E  E  E  E  E  E   S S S S S S S S  S  S S S
D|----------------------------------------------|
A|----------------------------------------------|
F|----------------------------------------------|
C|------------------------------------------7-7-|
G|-6--6--6--7--6--10--9-9-9-9-9-9-9-9-10-10-----|
D|----------------------------------------------|

  |-----6-----| |----6----| |------6-------|
  S S S S  S  S S S S S S S E  E  E  E  E  E
D|---------------------------------------------|
A|---------------------------------------------|
F|---------------------------------------------|
C|-8-8-7-7-------------------------------------|
G|---------10-10-9-9-9-9-9-9-------------------|
D|---------------------------7--7--7--7--7--7--|

   |------6-------| |----6----| |----6----| |----6----|
   S  S  S  S  S  S S S S S S S S S S S S S S S S S S S
D|-------------------------------------------------------|
A|-------------------------------------------------------|
F|-------------------------------------------------------|
C|-10-10-10-10-10-10-9-9-8-8-7-7-------------------------|
G|-------------------------------9-9-9-9-9-9-6-6-7-7-8-8-|
D|-------------------------------------------------------|

  |----6----| |----6----| |----6----| |----6----|
  S S S S S S S S S S S S S S S S S S S S S S S S
D|--------------------------------------------------|
A|--------------------------------------------------|
F|--------------------------------------------------|
C|--------------------------------------------------|
G|-9-9-8-8-7-7-6-6-6-6-6-6-6-6-6-6-6-6-6-6-6-6-6-6--|
D|--------------------------------------------------|

  |------6------| |----6----| |-----6-----|
  E  E  E  Q    E S S S S S S S S  S  S S S
D|-------------------------------------------|
A|-------------------------------------------|
F|-------------------------------------------|
C|---------------------------------------7-7-|
G|-6--7--6--7---10-9-9-9-9-9-9-9-9-10-10-----|
D|-------------------------------------------|

  |-----6-----| |----6----|  |------6-------|  |------6-------|
  S S S S  S  S S S S S S S  S  S  S  S  S  S  S  S  S  S  S  S
D|-----------------------------------------------------------------|
A|-----------------------------------------------------------------|
F|---------------------------------------------11-11-11-11-11-11---|
C|-8-8-7-7-------------------10-10-10-10-10-10---------------------|
G|---------10-10-9-9-9-9-9-9---------------------------------------|
D|-----------------------------------------------------------------|

   |------6-------| |----6----| |----6----| |----6----|
   S  S  S  S  S  S S S S S S S S S S S S S S S S S S S
D|-------------------------------------------------------|
A|-------------------------------------------------------|
F|-------------------------------------------------------|
C|-10-10-10-10-10-10-9-9-8-8-7-7-------------------------|
G|-------------------------------9-9-9-9-9-9-6-6-7-7-8-8-|
D|-------------------------------------------------------|

  |----6----| |----6----| |----6----| |----6----|
  S S S S S S S S S S S S S S S S S S S S S S S S
D|--------------------------------------------------|
A|--------------------------------------------------|
F|--------------------------------------------------|
C|--------------------------------------------------|
G|-9-9-8-8-7-7-6-6-6-6-6-6-6-6-6-6-6-6-6-6-6-6-6-6--|
D|--------------------------------------------------|

 [1:59]
  |----6----| |----6----|   |----6----| |--6--|
  E E E E E E E E E E E E   E E E E E E E E E Q.
D|-----------------------7-|-6-3-------------------|
A|---------------------5---|-----5-----------------|
F|-----------------4-5-----|-------6-5-4-3---------|
C|-----------2-4-5---------|---------------6-3-5---|
G|-------2-3---------------|-----------------------|
D|-0-2-3-------------------|-----------------------|

[2:02]
    S  S  S  S  S  S  S  S  S  S  S  S  S  S  S  S    S  S  S  S  S  S  S  S  S  S  S  S  S  S  S  S
D|-19-15----15-19-15----15-19-15-19-15----15-18-15-|----15-18-15-18-15----15-18-17-16-15-------------|
A|-------17----------17----------------17----------|-17----------------17----------------19-18-17-16-|
F|-------------------------------------------------|-------------------------------------------------|
C|-------------------------------------------------|-------------------------------------------------|
G|-------------------------------------------------|-------------------------------------------------|
D|-------------------------------------------------|-------------------------------------------------|

      S  S  S  S  S  S  S  S  S  S  S  S  S  S  S  S    S  S  S  S  S  S  S  S  S  S  S  S  S  S  S  S
D|--------15-17-19-15----15-19-15-19-15----15-18-15-|----15-18-15-18-15----15-18-15-18-15----15-18-15--|
A|o-17-18-------------17----------------17----------|-17----------------17----------------17-----------|
F|--------------------------------------------------|--------------------------------------------------|
C|--------------------------------------------------|--------------------------------------------------|
G|o-------------------------------------------------|--------------------------------------------------|
D|--------------------------------------------------|--------------------------------------------------|

    S  S  S  S  S  S  S  S  S  S  S  S  S  S  S  S    S  S  S  S  S  S  S  S  S  S  S  S  S  S  S  S
D|-19-15----15-19-15----15-19-15-19-15----15-18-15-|----15-18-15-18-15----15-18-17-16-15--------------|
A|-------17----------17----------------17----------|-17----------------17----------------19-18-17-16-o|
F|-------------------------------------------------|--------------------------------------------------|
C|-------------------------------------------------|--------------------------------------------------|
G|-------------------------------------------------|-------------------------------------------------o|
D|-------------------------------------------------|--------------------------------------------------|

[2:17]
    H     Q      Q     W             W          W          H    H
D|------------------|--------------|----------|----------|-----------|
A|-16---------------|--------------|----------|----------|-----------|
F|-------14b15r=14--|-14b15--------|-8--------|-6--------|-8----8----|
C|------------------|--------------|----------|----------|-----------|
G|------------------|--------------|-6--------|-4--------|-6----6----|
D|------------------|--------------|----------|----------|-----------|

[2:30]
   S  S  S  S  Q   E     E  S  S  E   E  E     E  E  S  S  E  Q
D|----------------------------------|----------------------------|
A|---------10-11--10b11r10----10-11-|---10b11r10-11-10-11-10-----|
F|-8-10-11-----------------11-------|------------------------11--|
C|----------------------------------|----------------------------|
G|----------------------------------|----------------------------|
D|----------------------------------|----------------------------|                          

                                                                  |--3--|
  S  S  S  S  S  S  S  S  S  S  S  S E  E        +E      E  E  E  E  E  E  Q
D|---------------------------------------------|-------------------------------|
A|---------10-11-10----------10-11-13---14b16--|-(14)b16-14-13----14-13--------|
F|-8-10-11----------11-10-11-------------------|---------------15-------15-14--|
C|---------------------------------------------|-------------------------------|
G|---------------------------------------------|-------------------------------|
D|---------------------------------------------|-------------------------------|

   S S S S S S S S S  S S  S S  S  S  S   S S  S  S  H     S  S  E
D|--------------------------------------|---------------------------|
A|---------------------------7-10-11-10-|-7---------11b12--9-11-12--|
F|-----------------8-10-8-10------------|---8-10-11-----------------|
C|---------8-9-8-9----------------------|---------------------------|
G|-8-9-8-9------------------------------|---------------------------|
D|--------------------------------------|---------------------------|

    Q   E  Q   S  S  S  S  S  S    S  S  S  S  S  S  S  S  S  S  S  S  S  S  S  S
D|------------------------------|-------------------------------------------------|
A|-16---------------------------|-------------------------------------------------|
F|-----15-15-----11-15-11----11-|-14-11-14-11----11-15-11-16-11-15-11-14-11-15-11-|
C|------------13----------13----|-------------13----------------------------------|
G|------------------------------|-------------------------------------------------|
D|------------------------------|-------------------------------------------------|

[2:41]
(Gtr 2)
    E  E  E  E  Q.    S S     H      E S  S  S S  S S
D|-------------13----11-9-|---8-----11-9--------------|
A|-------11---------------|--------------12-11-9----9-|
F|----10----10------------|----------------------11---|
C|------------------------|---------------------------|
G|------------------------|---------------------------|
D|------------------------|---------------------------|

(Gtr 1)
    W                        +W
D|------------------------|---------------------------|
A|------------------------|---------------------------|
F|------------------------|---------------------------|
C|-16---------------------|-(16)----------------------|
G|------------------------|---------------------------|
D|------------------------|---------------------------|

   |-3--|                   |--3--|
   Q  Q Q  E Q.       H     Q  Q  Q
D|---------11-------|-----------------|
A|-12-12-9----------|--------9-11-12--|
F|------------8\----|-----------------|
C|------------------|-----------------|
G|------------------|-----------------|
D|------------------|-----------------|

    W                 +W
D|------------------|-----------------|
A|------------------|-----------------|
F|--8---------------|-(8)-------------|
C|------------------|-----------------|
G|--6---------------|-(6)-------------|
D|------------------|-----------------|

                    |--3--|  |-3--|
   E. E. H    E     E  E  E  E E  E  H
D|-11--9--9-------|-------11-11------------|
A|----------------|--9--9-------9-12-10----|
F|----------------|------------------------|
C|----------------|------------------------|
G|----------------|------------------------|
D|----------------|------------------------|

    W               +W
D|----------------|------------------------|
A|----------------|------------------------|
F|--6-------------|-(6)--------------------|
C|----------------|------------------------|
G|--4-------------|-(4)--------------------|
D|----------------|------------------------|

    S S S S S S S S S S S S S S S  S    W
D|-----------------------------------|------------------------------------|
A|-10-9-7----------------------------|------------------------------------|
F|--------9-8-6-----------6-8-9-8-11-|-10---------------------------------|
C|--------------9-7-6-7-9------------|------------------------------------|
G|-----------------------------------|------------------------------------|
D|-----------------------------------|------------------------------------|

    W                                   Q  S S S S S S S S  S  S  S  S
D|-----------------------------------|------------------------------------|
A|-----------------------------------|------------------------------------|
F|-----------------------------------|------------------------------------|
C|--6--------------------------------|-----8-8-8-8-9-9-9-9-11-11-11-11----|
G|-----------------------------------|--4---------------------------------|
D|--4--------------------------------|--5---------------------------------|

[2:53]
      S  S  S  S  S  S  S  S  S  S  S  S  S  S  S  S    S  S  S  S  S  S  S  S  S  S  S  S  S  S  S  S 
D|--------------------------------------------------|--------------------------------------------------|
A|o-------------------------------------------------|--------------------------------------------------|
F|--------------------------------------------------|--------------------------------------------------|
C|--12-12-12-12-12-12-12-12-12-12-12-12-12-12-12-12-|-12-12-12-12-12-12-12-12-15-15-15-15-15-15-15-15--|
G|o-------------------------------------------------|--------------------------------------------------|
D|--------------------------------------------------|--------------------------------------------------|

    S  S  S  S  S  S  S  S S S S S S S S S   S S S S S S S S S S S S S S S S
D|-----------------------------------------|----------------------------------|
A|-----------------------------------------|---------------------------------o|
F|-----------------------------------------|----------------------------------|
C|-13-13-13-13-13-13-13-13-7-7-7-7-8-8-8-8-|-8-8-8-8-8-8-8-8-8-8-8-8-8-8-8-8--|
G|-----------------------------------------|---------------------------------o|
D|-----------------------------------------|----------------------------------|

   S S S S S S  S  S S S S S S S S S   S S S S S S S S  S  S  S  S  S  S  S  S
D|-----------------------------------|-----------------------------------------|
A|-----------------------------------|-----------------------------------------|
F|-----------------------------------|-----------------------------------------|
C|-8-8-8-8-8-8-13-13-6-6-6-6-6-6-6-6-|-6-6-6-6-6-6-6-6-15-15-15-15-15-15-15-15-|
G|-----------------------------------|-----------------------------------------|
D|-----------------------------------|-----------------------------------------|

    S  S  S  S  S  S  S  S  S  S  S  S  S  S  S  S    S  S  S  S  S  S  S  S  S  S  S  S  S  S  S  S
D|-------------------------------------------------|-------------------------------------------------|
A|-------------------------------------------------|-------------------------------------------------|
F|-------------------------------------------------|-------------------------------------------------|
C|-15-15-15-15-15-15-15-15-11-11-11-11-11-11-11-11-|-11-11-11-11-11-11-11-11-11-11-11-11-11-11-11-11-|
G|-------------------------------------------------|-------------------------------------------------|
D|-------------------------------------------------|-------------------------------------------------|

T      T    T    T      T      T
      S S S  S S  S S  S S S  S S S  S S S  (4x)
D|-----------------------------------------|
A|o---------------------------------------o|
F|-----------------------------------------|
C|---------13p6-------------13p6h8---------|
G|o-13p6h8------14p6-13p6h8--------14p6h8-o|
D|-----------------------------------------|

[3:38]
   q  S S S S q.   S S   E S S S S  Q  S S Q
D|---------------------|----------------------|
A|---------------------|----------------------|
F|---------------------|----------------------|
C|-2----------2--------|-----------10------7--|
G|-2--2-2-2-2-2------2-|-2---------10------7--|
D|-0--0-0-0-0-0------0-|-0-7-7-7-7--8--5-5-5--|

|----6----| |-----6-----| |----6----| |-----6-----|
  S S S S S S S S S S  S  S S S S S S S S S  S  S S S
D|-----------------------------------------------------|
A|-----------------------------------------------------|
F|-6-6-6-6-6-6-------------------------------------7-7-|
C|-------------9-9-7-7-10-10-9-9-9-9-9-9-9-9-10-10-----|
G|-----------------------------------------------------|
D|-----------------------------------------------------|

  |-----6-----| |----6----| |----6----| |----6----|
  S S S S  S  S S S S S S S S S S S S S S S S S S S
D|----------------------------------------------------|
A|----------------------------------------------------|
F|-8-8-7-7--------------------------------------------|
C|---------10-10-9-9-9-9-9-9-9-9-9-9-9-9-9-9-9-9-9-9--|
G|----------------------------------------------------|
D|----------------------------------------------------|

   |------6-------| |----6----| |----6----| |----6----|
   S  S  S  S  S  S S S S S S S S S S S S S S S S S S S
D|-------------------------------------------------------|
A|-------------------------------------------------------|
F|-10-10-10-10-10-10-9-9-8-8-7-7-------------------------|
C|-------------------------------9-9-9-9-9-9-6-6-7-7-8-8-|
G|-------------------------------------------------------|
D|-------------------------------------------------------|

  |----6----| |----6----| |----6----| |----6----|
  S S S S S S S S S S S S S S S S S S S S S S S S
D|--------------------------------------------------|
A|--------------------------------------------------|
F|--------------------------------------------------|
C|-9-9-8-8-7-7-5-5-5-5-5-5-5-5-5-5-5-5-5-5-5-5-5-5--|
G|--------------------------------------------------|
D|--------------------------------------------------|

  |----6----| |-----6-----| |----6----| |-----6-----|
  S S S S S S S S S S  S  S S S S S S S S S  S  S S S
D|-----------------------------------------------------|
A|-----------------------------------------------------|
F|-------------------------------------------------7-7-|
C|-6-6-6-6-6-6-7-7-6-6-10-10-9-9-9-9-9-9-9-9-10-10-----|
G|-----------------------------------------------------|
D|-----------------------------------------------------|

  |-----6-----| |----6----|  |-------6------|  |-------6------|
  S S S S  S  S S S S S S S  S  S  S  S  S  S  S  S  S  S  S  S
D|---------------------------------------------------------------|
A|---------------------------------------------12-12-12-12-12-12-|
F|-8-8-7-7-------------------10-10-10-10-10-10-------------------|
C|---------10-10-9-9-9-9-9-9-------------------------------------|
G|---------------------------------------------------------------|
D|---------------------------------------------------------------|

   |------6-------|  |------6-------|  |------6-------|  |------6-------|
   S  S  S  S  S  S  S  S  S  S  S  S  S  S  S  S  S  S  S  S  S  S  S  S
D|-------------------------------------------------------------------------|
A|-------------------------------------------------------------------------|
F|-14-14-14-14-14-14-13-13-12-12-11-11-------------------------------------|
C|-------------------------------------13-13-13-13-13-13-10-10-11-11-12-12-|
G|-------------------------------------------------------------------------|
D|-------------------------------------------------------------------------|

   |------6-------|  |------6-------|  |------6-------|  |------6-------|
   S  S  S  S  S  S  S  S  S  S  S  S  S  S  S  S  S  S  S  S  S  S  S  S
D|--------------------------------------------------------------------------|
A|--------------------------------------------------------------------------|
F|--------------------------------------------------------------------------|
C|-13-13-12-12-11-11-10-10-10-10-10-10-10-10-10-10-10-10-10-10-10-10-10-10--|
G|--------------------------------------------------------------------------|
D|--------------------------------------------------------------------------|

  |-------6------|   |----6----| |-----6-----|
  E  E  E  E  E  E   S S S S S S S S  S  S S S
D|----------------------------------------------|
A|----------------------------------------------|
F|----------------------------------------------|
C|------------------------------------------7-7-|
G|-6--6--6--7--6--10--9-9-9-9-9-9-9-9-10-10-----|
D|----------------------------------------------|

  |-----6-----| |----6----| |------6-------|
  S S S S  S  S S S S S S S E  E  E  E  E  E
D|---------------------------------------------|
A|---------------------------------------------|
F|---------------------------------------------|
C|-8-8-7-7-------------------------------------|
G|---------10-10-9-9-9-9-9-9-------------------|
D|---------------------------7--7--7--7--7--7--|

   |------6-------| |----6----| |----6----| |----6----|
   S  S  S  S  S  S S S S S S S S S S S S S S S S S S S
D|-------------------------------------------------------|
A|-------------------------------------------------------|
F|-------------------------------------------------------|
C|-10-10-10-10-10-10-9-9-8-8-7-7-------------------------|
G|-------------------------------9-9-9-9-9-9-6-6-7-7-8-8-|
D|-------------------------------------------------------|

  |----6----| |----6----| |----6----| |----6----|
  S S S S S S S S S S S S S S S S S S S S S S S S
D|--------------------------------------------------|
A|--------------------------------------------------|
F|--------------------------------------------------|
C|--------------------------------------------------|
G|-9-9-8-8-7-7-6-6-6-6-6-6-6-6-6-6-6-6-6-6-6-6-6-6--|
D|--------------------------------------------------|

  |------6------| |----6----| |-----6-----|
  E  E  E  Q    E S S S S S S S S  S  S S S
D|-------------------------------------------|
A|-------------------------------------------|
F|-------------------------------------------|
C|---------------------------------------7-7-|
G|-6--7--6--7---10-9-9-9-9-9-9-9-9-10-10-----|
D|-------------------------------------------|

  |-----6-----| |----6----|  |------6-------|  |------6-------|
  S S S S  S  S S S S S S S  S  S  S  S  S  S  S  S  S  S  S  S
D|-----------------------------------------------------------------|
A|-----------------------------------------------------------------|
F|---------------------------------------------11-11-11-11-11-11---|
C|-8-8-7-7-------------------10-10-10-10-10-10---------------------|
G|---------10-10-9-9-9-9-9-9---------------------------------------|
D|-----------------------------------------------------------------|

   |------6-------| |----6----| |----6----| |----6----|
   S  S  S  S  S  S S S S S S S S S S S S S S S S S S S
D|-------------------------------------------------------|
A|-------------------------------------------------------|
F|-------------------------------------------------------|
C|-10-10-10-10-10-10-9-9-8-8-7-7-------------------------|
G|-------------------------------9-9-9-9-9-9-6-6-7-7-8-8-|
D|-------------------------------------------------------|

  |----6----| |----6----| |----6----| |----6----|
  S S S S S S S S S S S S S S S S S S S S S S S S
D|--------------------------------------------------|
A|--------------------------------------------------|
F|--------------------------------------------------|
C|--------------------------------------------------|
G|-9-9-8-8-7-7-6-6-6-6-6-6-6-6-6-6-6-6-6-6-6-6-6-6--|
D|--------------------------------------------------|

   |------6-------| |----6----| |----6----| |----6----|
   S  S  S  S  S  S S S S S S S S S S S S S S S S S S S
D|-------------------------------------------------------|
A|-------------------------------------------------------|
F|-------------------------------------------------------|
C|-10-10-10-10-10-10-9-9-8-8-7-7-------------------------|
G|-------------------------------9-9-9-9-9-9-6-6-7-7-8-8-|
D|-------------------------------------------------------|

  |----6----| |----6----| |-----6------|
  S S S S S S S S S S S S E E  E  E  E E    Q  H.
D|-----------------------------------------|----------*|
A|-----------------------------------------|----8-----*|
F|--------------------------------11-------|----9-----*|
C|-----------------------------10----10----|----9-----*|
G|-9-9-8-8-7-7-6-6-6-6-6-6-6-9----------9--|----7-----*|
D|-----------------------------------------|----------*|


************************************

| (n)  Ghost note
| h    Hammer-on
| p    Pull-off
| b    Bend
| r    Release
| \    Slide down
| *    Natural harmonic

************************************

            
            
Suggest correction
Creating personal tab
Creating personal tab
You can edit any tab online and save it as your Personal.

You can edit, replace or remove any tab part or add personal notes – all changes will be seen only by you.

Personal tabs can be accessed anytime from any device, even offline.
Learn more »
comments
print report bad tab
2 comments total.
0 reply
FMechanixGuitar 10 Apr 10, 2016 04:53 PM

Amazing bro, good job with this tab.
i play the second bar like this:
everything in 16th
|-------------------------------------------------|
|-(13)---------------------------------13-12-9----|
|-(10)-------10-13-10----------10-13-10--------10-|
|-(11)-10-11----------11-10-11--------------------|
|-------------------------------------------------|
|-------------------------------------------------|

cheers!

guest
You may want to rate the tab now too:
select rating
Wanna post a correction for this tab? Suggest correction