Oops, an error
Loading. Please wait.

Dark Lines Bass Tab

1,202 views 6 this week
1 commentread comment
1 2 3 4 5
2 more votes to show rating
add to favorites
launch autoscroll
font size
0
reset
guitar tuner
Autoscroll
slow
fast
+/-
esc
set tempo
stop
Help us to improve Ultimate-Guitar.com Take our survey!
×
THE GOSSIP - DARK LINES
ALBUM: STANDING IN THE WAY OF CONTROL (2006)
BASSIST: BRACE PAINE

VERSE 1  (x4)

E -------------------------------------------------|
A -----7-7-7-x-x---5p7-7-----5--7-7-7-x-x-x-x-x----|
D -----------------------5p4-----------------------|
G -------------------------------------------------|

VERSE 1b (x1)

E ------------------------------7-7-7-x-x-x--0-0---|
A -----7-7-7-x-x---5p7-7-----5---------------------|
D -----------------------5p4-----------------------|
G -------------------------------------------------|

VERSE 1  (x3)

E -------------------------------------------------|
A -----7-7-7-x-x---5p7-7-----5--7-7-7-x-x-x-x-x----|
D -----------------------5p4-----------------------|
G -------------------------------------------------|

VERSE 2  (x1)

E -------------------------------------------------|
A -------------------------------------------------|
D -----7-7-7*-----5p7-7*-----5--7-7-7*-------------|
G -----------------------5p4-----------------------|

E -------------------------------------------------|
A -------------------------------------------------|
D -----7-7-7*-----5p7-7*-----5--7-7-7*--5-4*-------|
G -----------------------5p4-----------------------|

AND THEN REPEAT THE SEQUENCE...
verse 1  (x4)
verse 1b (x1)
verse 1  (x4)
verse 2  (x1)

in the outro repeat the verse 1 untill the end
BEAUTIFUL SONG

*=HOLD (LET RING THE NOTE)
tabbed by JAH WOBBLE IS GOD
Suggest correction
Give kudos to tab author, rate the tab!
1 2 3 4 5
comments
print report bad tab
1 comment total.
0 reply
naturalucka 10 Mar 16, 2013 04:45 AM

THE GOSSIP - DARK LINES
ALBUM: STANDING IN THE WAY OF CONTROL (2006)
BASSIST: BRACE PAINE

VERSE 1 (x4)

G -------------------------------------------------|
D -----------------------5p4-----------------------|
A -----7-7-7-x-x---5p7-7-----5--7-7-7-x-x-x-x-x----|
E -------------------------------------------------|

VERSE 1b (x1)

G -------------------------------------------------|
D -----------------------5p4-----------------------|
A -----7-7-7-x-x---5p7-7-----5---------------------|
E ------------------------------7-7-7-x-x-x--0-0---|

VERSE 1 (x3)

G -------------------------------------------------|
D -----------------------5p4-----------------------|
A -----7-7-7-x-x---5p7-7-----5--7-7-7-x-x-x-x-x----|
E -------------------------------------------------|

VERSE 2 (x1)

G -----------------------5p4-----------------------|
D -----7-7-7*-----5p7-7*-----5--7-7-7*-------------|
A -------------------------------------------------|
E -------------------------------------------------|

G -----------------------5p4-----------------------|
D -----7-7-7*-----5p7-7*-----5--7-7-7*--5-4*-------|
A -------------------------------------------------|
E -------------------------------------------------|

AND THEN REPEAT THE SEQUENCE...
verse 1 (x4)
verse 1b (x1)
verse 1 (x4)
verse 2 (x1)

in the outro repeat the verse 1 untill the end
BEAUTIFUL SONG

*=HOLD (LET RING THE NOTE)
tabbed by JAH WOBBLE IS GOD

guest
You may want to rate the tab now too:
select rating
Wanna post a correction for this tab? Suggest correction