Oops, an error
Loading. Please wait.

Heavy Cross Tab

version 2
version 2

Interactive

21,388 views 1 this week
no commentswrite comment
1 2 3 4 5
please rate
add to favorites
launch autoscroll
font size
0
reset
how to read this tab
guitar tuner
Tab Pro tools
  • play this tab
  • loop segment
  • change instrument
  • show fretboard
  • metronome
Autoscroll
slow
fast
+/-
esc
set tempo
stop
Contributor
Difficulty
intermediate
Gossip: Heavy Cross                                   


     Intro
     
     S     S S S S S S S S  S S S S S S S    S  S S S S S S S S S S S S S S S  
E||---------------------------------------|-----------------------------------|
B||---------------------------------------|-----------------------8-8-----8-8-|
G||----------9-9-----9-9------9-9-----9-9-|-------9-9-----9-9-----------------|
D||---------------------------------------|-----------------------------------|
A||--5S----7-----7-7-----5S-7-----7-7-----|--5S-7-----7-7-----7-7-----7-7-----|
E||---------------------------------------|-----------------------------------|


  S  S S S S S S S S  S S S S S S S    S  S S S S S S S S S S S S S S S  4x
------------------------------------|------------------------------------||
------------------------------------|------------------------------------||
-------7-7-----7-7------7-7-----7-7-|-------7-7-----7-7-----5-5-----4-4-*||
------------------------------------|-----------------------------------*||
--3S-5-----5-5-----3S-5-----5-5-----|--3S-5-----5-5-----3-3-----2-2------||
------------------------------------|------------------------------------||


  Verse
  
  S     S S S S S S S S S S S S S S S    S S S S S S S S S S S S S S S S  
--------------------------------------|----------------------------------|
--------------------------------------|----------------------------------|
-------9-9-9-9-9-9-9-9-9-9-9-9-9-9----|------9-9-----9-9-----9-9-9-9-9-9-|
--------------------------------------|----------------------------------|
--7-7---------------------------------|--7-7-----7-7-----7-7-------------|
--------------------------------------|----------------------------------|


  S S S S S S S S S S S S S S S S    S S S S S S S S S S S S S S S S  
----------------------------------|----------------------------------|
----------------------------------|----------------------------------|
------7-7-7-7-7-7-----7-7-----7-7-|------7-7-----7-7-----7-7-----7-7-|
----------------------------------|----------------------------------|
--5-5-------------5-5-----5-5-----|--5-5-----5-5-----5-5-----5-5-----|
----------------------------------|----------------------------------|


  S S S S S S S S S S S S S S S S    S S S S S S S S S S S S S S S S  
----------------------------------|----------------------------------|
----------------------------------|----------------------------------|
------9-9-9-9-9-9-9-9-9-9-9-9-9-9-|------9-9-----9-9-----9-9-9-9-9-9-|
----------------------------------|----------------------------------|
--7-7-----------------------------|--7-7-----7-7-----7-7-------------|
----------------------------------|----------------------------------|


  S S S S S S S S S S S S S S S S    S S S S S S S S S S S S S S S S  
----------------------------------|----------------------------------|
----------------------------------|----------------------------------|
------7-7-----7-7-----7-7-----7-7-|------7-7-----7-7-----7-7-----7-7-|
----------------------------------|----------------------------------|
--5-5-----5-5-----5-5-----5-5-----|--5-5-----5-5-----5-5-----5-5-----|
----------------------------------|----------------------------------|


  S S S S S S S S S S S S S S S S    S S S S S S S S S S S S S S S S  
----------------------------------|----------------------------------|
----------------------------------|----------------------------------|
------9-9-----9-9-----9-9-9-9-9-9-|--9-9-9-9-9-9-9-9-9-9-9-9-9-9-9-9-|
----------------------------------|----------------------------------|
--7-7-----7-7-----7-7-------------|----------------------------------|
----------------------------------|----------------------------------|


  S S S S S S S S S S S S S S S S    S S S S S S S S S S S S S S S S  
----------------------------------|----------------------------------|
----------------------------------|----------------------------------|
------7-7-----7-7-----7-7-----7-7-|------7-7-----7-7-----7-7-----7-7-|
----------------------------------|----------------------------------|
--5-5-----5-5-----5-5-----5-5-----|--5-5-----5-5-----5-5-----5-5-----|
----------------------------------|----------------------------------|


  S S S S S S S S S S S S S S S S    S S S S S S S S S S S S S S S S  
----------------------------------|----------------------------------|
----------------------------------|----------------------------------|
------9-9-9-9-9-9-9-9-9-9-9-9-9-9-|--9-9-9-9-9-9-9-9-9-9-9-9-9-9-9-9-|
----------------------------------|----------------------------------|
--7-7-----------------------------|----------------------------------|
----------------------------------|----------------------------------|


  S S S S S S S S S S S S S S S S    S S S S S S S S S S S S S S S S  
----------------------------------|----------------------------------|
----------------------------------|----------------------------------|
------7-7-----7-7-----7-7-----7-7-|------7-7-----7-7-----7-7-----7-7-|
----------------------------------|----------------------------------|
--5-5-----5-5-----5-5-----5-5-----|--5-5-----5-5-----5-5-----5-5-----|
----------------------------------|----------------------------------|


     Chorus
     
     S      S  S  S  S S S S  S  S  S  S  S S S S  
|-------------------------------------------------|
|-------------------------------------------------|
|*--12-12-12-12-12-x-x-x-12-12-12-12-12-x-x-x-----|
|*------------------------------------------------|
|-------------------------------------------------|
|-------------------------------------------------|


   S  S  S  S  S S S S  S  S  S  S  S S S S     E   E   Q     E  S S S S S S  
--------------------------------------------|----------10--------------------|
--12-12-12-12-12-------12-12-12-12-12-------|----------10--------------------|
-----------------x-x-x----------------x-x-x-|----------10--------------------|
--------------------------------------------|----------12--------------------|
--------------------------------------------|--12--12--12----12--7-7-7-7-7-7-|
--------------------------------------------|--10--10--10----10--5-5-5-5-5-5-|


   E   E   Q     E  S S S S S S     S  S  S  S  S S S S  S  S  S  S  S S  S  S  
----------10--------------------|----------------------------------------15-15-|
----------10--------------------|----------------------------------------------|
----------10--------------------|--12-12-12-12-12-x-x-x-12-12-12-12-12-x--x--x-|
----------12--------------------|----------------------------------------------|
--12--12--12----12--7-7-7-7-7-7-|----------------------------------------------|
--10--10--10----10--5-5-5-5-5-5-|----------------------------------------------|


   S  S  S  S  S S S S  S  S  S  S  S S S S     E   E   Q     E  S S S S S S  
--------------------------------------------|----------10--------------------|
--12-12-12-12-12-------12-12-12-12-12-------|----------10--------------------|
-----------------x-x-x----------------x-x-x-|----------10--------------------|
--------------------------------------------|----------12--------------------|
--------------------------------------------|--12--12--12----12--7-7-7-7-7-7-|
--------------------------------------------|--10--10--10----10--5-5-5-5-5-5-|


   E   E   Q     E  S S S S S S     S  S  S  S  S S S S  S  S  S  S  S S S S  
----------10--------------------|--------------------------------------------|
----------10--------------------|--------------------------------------------|
----------10--------------------|--12-12-12-12-12-x-x-x-12-12-12-12-12-x-x-x-|
----------12--------------------|--------------------------------------------|
--12--12--12----12--7-7-7-7-7-7-|--------------------------------------------|
--10--10--10----10--5-5-5-5-5-5-|--------------------------------------------|


   S  S  S  S  S S S S  S  S  S  S  S S S S     E   E   Q     E  S S S S S S  
--------------------------------------------|----------10--------------------|
--12-12-12-12-12-------12-12-12-12-12-------|----------10--------------------|
-----------------x-x-x----------------x-x-x-|----------10--------------------|
--------------------------------------------|----------12--------------------|
--------------------------------------------|--12--12--12----12--7-7-7-7-7-7-|
--------------------------------------------|--10--10--10----10--5-5-5-5-5-5-|


   E   E   Q     E  S S S S S S     S  S  S  S  S S S S  S  S  S  S  S S S S  
----------10--------------------|--------------------------------------------|
----------10--------------------|--------------------------------------------|
----------10--------------------|--12-12-12-12-12-x-x-x-12-12-12-12-12-x-x-x-|
----------12--------------------|--------------------------------------------|
--12--12--12----12--7-7-7-7-7-7-|--------------------------------------------|
--10--10--10----10--5-5-5-5-5-5-|--------------------------------------------|


   S  S  S  S  S S S S  S  S  S  S  S S S S     E   E   Q     E  S S S S S S  
--------------------------------------------|----------10--------------------|
--12-12-12-12-12-------12-12-12-12-12-------|----------10--------------------|
-----------------x-x-x----------------x-x-x-|----------10--------------------|
--------------------------------------------|----------12--------------------|
--------------------------------------------|--12--12--12----12--7-7-7-7-7-7-|
--------------------------------------------|--10--10--10----10--5-5-5-5-5-5-|


                                    Verse2                                     
   E   E   Q     E  S S S S S S     Q      Q     H           W                 
----------10--------------------|-------------------------|-------------------|
----------10--------------------|---------------12--------|-------------------|
----------10--------------------|---------12--------------|-------------------|
----------12--------------------|--14---------------------|-------------------|
--12--12--12----12--7-7-7-7-7-7-|-------------------------|-------------------|
--10--10--10----10--5-5-5-5-5-5-|-------------------------|-------------------|


   Q     Q     H           W                  
------------------------|-------------------||
--------------10--------|-------------------||
--------11--------------|-------------------||
--12--------------------|-------------------||
------------------------|-------------------||
------------------------|-------------------||




Duration Legend
---------------
W - whole
H - half
Q - quarter
E - 8th
S - 16th
T - 32nd
X - 64th
. - note dotted
|-n-|  - n-tuplets


Tablature Legend
----------------
L - tied note
x - dead note
g - grace note
(n) - ghost note
> - accentuded note
NH - natural harmonic
AH - artificial harmonic
TH - tapped harmonic
SH - semi harmonic
PH - pitch harmonic
h - hammer on
p - pull off
b - bend
br - bendRelease
pb - preBend
pbr - preBendRelease
brb - bendReleaseBend
\n/ - tremolo bar dip
\n - tremolo bar dive
-/n - tremolo bar Release up
/n\ - tremolo bar inverted dip
/n - tremolo bar return
-\n - tremolo bar Release down
S - shift slide
s - legato slide
/ -  slide into from below or out of upwards
\ -  slide into from above or out of downwards
~ - vibrato
W - wide vibrato
tr - trill
TP - tremolo picking
T - tapping
S - slap
P - pop
< - fade in
^ - brush up
v - brush down

tabbed by hoattis
comments
We did not receive enough feedback on this tab! Please rate:
print report bad tab
1 2 3 4 5
I want to post or [tab]
guest
You may want to rate the tab now too:
select rating
Please do not post tabs as comments. Select "correction" instead!