Oops, an error
Loading. Please wait.

Heavy Cross tab

version 6
version 6

Interactive

by gossip
5,059 views 15 this week
no commentswrite comment
1 2 3 4 5
1 last vote to show rating
add to favorites
×
Save as Personal and add changes to this tab that will be seen only by you. Learn more ›
×
You can save this tab as Personal to edit and correct it or add notes. All changes will be seen only by you. Learn more »
launch autoscroll
font size
0
reset
how to read this tab
guitar tuner
edit
Autoscroll
slow
fast
+/-
esc
set tempo
stop
Author
Difficulty
intermediate
The Gossip
Heavy Cross
By Samoth
Standard tuning

[Verse 1]
[Guitar](DL)
e|-----------------------------------------|
B|-----------------------------------------|
G|---9---9---9---9---9---9---9----12----12-|
D|-----------------------------------------|
A|-7---7---7---7---7---7---7---10----10----|
E|-----------------------------------------|
  . . . . . . . . . . . . . .  .  .  .  .

[Keyboard arranged for guitar]
e|----12:-|
B|--------|
G|-9:-----|
D|--------|
A|--------|
E|--------|

[Guitar](DL)
e|---------------------------------|
B|---------------------------------|
G|---7---7---7---7---7---7---5---4-|
D|---------------------------------|
A|-5---5---5---5---5---5---3---2---|
E|---------------------------------|
  . . . . . . . . . . . . . . . .

[Keyboard arranged for guitar]
e|----10:-|
B|--------|
G|-7:-----|
D|--------|
A|--------|
E|--------|

[Verse 2]
[Guitar](DL)
e|-------------------------------------|
B|-------------------------------------|
G|---9---9---9---9---9---9---9---9---9-|
D|-------------------------------------|
A|-7---7---7---7---7---7---7---7---7---|
E|-------------------------------------|
| . . . . . . . . . . . . . . . . . .

[Keyboard arranged for guitar]
e|----|
B|----|
G|-9:-|
D|----|
A|----|
E|----|

[Guitar](DL)
e|---------------------------------|
B|---------------------------------|
G|---7---7---7---7---7---7---7---7-|
D|---------------------------------|
A|-5---5---5---5---5---5---5---5---|
E|---------------------------------|
  . . . . . . . . . . . . . . . .

[Keyboard arranged for guitar]
e|----|
B|----|
G|-7:-|
D|----|
A|----|
E|----|

[Guitar](DL)
e|-------------------------------------|
B|-------------------------------------|
G|---9---9---9---9---9---9---9---9---9-|
D|-------------------------------------|
A|-7---7---7---7---7---7---7---7---7---|
E|-------------------------------------|
  . . . . . . . . . . . . . . . . . .

[Keyboard arranged for guitar]
e|----|
B|----|
G|-9:-|
D|----|
A|----|
E|----|

[Guitar](DL)
e|---------------------------------|
B|---------------------------------|
G|---7---7---7---7---7---7---7---7-|
D|---------------------------------|
A|-5---5---5---5---5---5---5---5---|
E|---------------------------------|
  . . . . . . . . . . . . . . . .

[Keyboard arranged for guitar]
e|----|
B|----|
G|-7:-|
D|----|
A|----|
E|----|

[Guitar](DL)
e|-------------------------------------|
B|-------------------------------------|
G|---9---9---9---9---9---9---9---9---9-|
D|-------------------------------------|
A|-7---7---7---7---7---7---7---7---7---|
E|-------------------------------------|
  . . . . . . . . . . . . . . . . . .

[Keyboard arranged for guitar]
e|----12:-|
B|--------|
G|-9:-----|
D|--------|
A|--------|
E|--------|

[Guitar](DL)
e|---------------------------------|
B|---------------------------------|
G|---7---7---7---7---7---7---7---7-|
D|---------------------------------|
A|-5---5---5---5---5---5---5---5---|
E|---------------------------------|
  . . . . . . . . . . . . . . . .

[Keyboard arranged for guitar]
e|----10:-|
B|--------|
G|-7:-----|
D|--------|x2
A|--------|
E|--------|

[Guitar](DL)
e|-------------------------------------|
B|-------------------------------------|
G|---9---9---9---9---9---9---9---9---9-|
D|-------------------------------------|
A|-7---7---7---7---7---7---7---7---7---|
E|-------------------------------------|
  . . . . . . . . . . . . . . . . . .

[Keyboard arranged for guitar]
e|----12:-|
B|--------|
G|-9:-----|
D|--------|
A|--------|
E|--------|

[Guitar 1](DL)
e|---------------------------------|
B|---------------------------------|
G|---7---7---7---7---7---7---7---7-|
D|---------------------------------|
A|-5---5---5---5---5---5---5---5---|
E|---------------------------------|
  . . . . . . . . . . . . . . . .

[Keyboard arranged for guitar]
e|----10:-|
B|--------|
G|-7:-----|
D|--------|x2
A|--------|
E|--------|

[Guitar 2]
e|------------------------------------------------|
B|------------------------------------------------|
G|------------------------------------------------|
D|------------------------------------------------|
A|------------------------------------------------|
E|------------------------------------------1/10:-|

[Verse 1 bis]
[Guitar](DL)
e|-----------------------------------------|
B|-----------------------------------------|
G|---9---9---9---9---9---9---9----12----12-|
D|-----------------------------------------|
A|-7---7---7---7---7---7---7---10----10----|
E|-----------------------------------------|
  . . . . . . . . . . . . . .  .  .  .  .

[Keyboard arranged for guitar]
e|----12:-|
B|--------|
G|-9:-----|
D|--------|
A|--------|
E|--------|

[Guitar](DL)
e|---------------------------------|
B|---------------------------------|
G|---7---7---7---7---7---7---5---4-|
D|---------------------------------|
A|-5---5---5---5---5---5---3---2---|
E|---------------------------------|
  . . . . . . . . . . . . . . . .

[Keyboard arranged for guitar]
e|----10:-|
B|--------|
G|-7:-----|
D|--------|
A|--------|
E|--------|

[Guitar](DL)
e|-----------------------------------------|
B|-----------------------------------------|
G|---9---9---9---9---9---9---9----12----12-|
D|-----------------------------------------|
A|-7---7---7---7---7---7---7---10----10----|
E|-----------------------------------------|
  . . . . . . . . . . . . . .  .  .  .  .

[Keyboard arranged for guitar]
e|----12:-|
B|--------|
G|-9:-----|
D|--------|
A|--------|
E|--------|

[Guitar](DL)
e|---------------------------------|
B|---------------------------------|
G|---7---7---7---7---7---7---5---4-|
D|---------------------------------|
A|-5---5---5---5---5---5---3---2---|
E|---------------------------------|
  . . . . . . . . . . . . . . . .

[Keyboard arranged for guitar]
e|----10:-|
B|--------|
G|-7:-----|
D|--------|
A|--------|
E|--------|

[Guitar](DL)
e|-----------------------------------------|
B|-----------------------------------------|
G|---9---9---9---9---9---9---9----12----12-|
D|-----------------------------------------|
A|-7---7---7---7---7---7---7---10----10----|
E|-----------------------------------------|
  . . . . . . . . . . . . . .  .  .  .  .

[Keyboard arranged for guitar]
e|----------|
B|------12:-|
G|-9-12-----|
D|----------|
A|----------|
E|----------|

[Guitar](DL)
e|---------------------------------|
B|---------------------------------|
G|---7---7---7---7---7---7---5---4-|
D|---------------------------------|
A|-5---5---5---5---5---5---3---2---|
E|---------------------------------|
  . . . . . . . . . . . . . . . .

[Keyboard arranged for guitar]
e|----------|
B|------10:-|
G|-7-10-----|
D|----------|
A|----------|
E|----------|

[Guitar](DL)
e|-----------------------------------------|
B|-----------------------------------------|
G|---9---9---9---9---9---9---9----12----12-|
D|-----------------------------------------|
A|-7---7---7---7---7---7---7---10----10----|
E|-----------------------------------------|
  . . . . . . . . . . . . . .  .  .  .  .

[Keyboard arranged for guitar]
e|----------|
B|------12:-|
G|-9-12-----|
D|----------|
A|----------|
E|----------|

[Guitar](DL)
e|---------------------------------|
B|---------------------------------|
G|---7---7---7---7---7---7---5---4-|
D|---------------------------------|
A|-5---5---5---5---5---5---3---2---|
E|---------------------------------|
   . . . . . . . . . . . . . . . .

[Keyboard arranged for guitar]
e|----------|
B|------10:-|
G|-7-10-----|
D|----------|
A|----------|
E|----------|

[Chorus 1]
e|-7-7-7-7-x-x-x-x-|-7-7-7-7-x-x-x-x-|-12-12-12-12-x-x-x-x-|12-12-12-12-x-x-x-x-|
B|-8-8-8-8-x-x-x-x-|-8-8-8-8-x-x-x-x-|-12-12-12-12-x-x-x-x-|12-12-12-12-x-x-x-x-|
G|-9-9-9-9-x-x-x-x-|-9-9-9-9-x-x-x-x-|-12-12-12-12-x-x-x-x-|12-12-12-12-x-x-x-x-|
D|-9-9-9-9-x-x-x-x-|-9-9-9-9-x-x-x-x-|---------------------|--------------------|
A|-7-7-7-7-x-x-x-x-|-7-7-7-7-x-x-x-x-|---------------------|--------------------|
E|-----------------|-----------------|---------------------|--------------------|

e|-----5\1-x-x-x-x-x-x-|-----5\1-x-x-x-x-x-x-|
B|-----6\2-x-x-x-x-x-x-|-----6\2-x-x-x-x-x-x-|
G|-----7\3-x-x-x-x-x-x-|-----7\3-x-x-x-x-x-x-|
D|---------------------|---------------------|
A|-5-5-----------------|-5-5-----------------|
E|---------------------|---------------------|

[Chorus 2]
[Guitar]
e|-7-7-7-7-x-x-x-x-|-7-7-7-7-x-x-x-x-|-12-12-12-12-x-x-x-x-|12-12-12-12-x-x-x-x-|
B|-8-8-8-8-x-x-x-x-|-8-8-8-8-x-x-x-x-|-12-12-12-12-x-x-x-x-|12-12-12-12-x-x-x-x-|
G|-9-9-9-9-x-x-x-x-|-9-9-9-9-x-x-x-x-|-12-12-12-12-x-x-x-x-|12-12-12-12-x-x-x-x-|
D|-9-9-9-9-x-x-x-x-|-9-9-9-9-x-x-x-x-|---------------------|--------------------|
A|-7-7-7-7-x-x-x-x-|-7-7-7-7-x-x-x-x-|---------------------|--------------------|
E|-----------------|-----------------|---------------------|--------------------|

[Keyboard arranged for guitar]
e|------------|
B|------12----|
G|-9-12----9:-|
D|------------|
A|------------|
E|------------|

[Guitar]
e|-----5\1-x-x-x-x-x-x-|-----5\1-x-x-x-x-x-x-|
B|-----6\2-x-x-x-x-x-x-|-----6\2-x-x-x-x-x-x-|
G|-----7\3-x-x-x-x-x-x-|-----7\3-x-x-x-x-x-x-|
D|---------------------|---------------------|
A|-5-5-----------------|-5-5-----------------|
E|---------------------|---------------------|

[Keyboard arranged for guitar]
e|------------|
B|------10----|
G|-7-10----7:-|
D|------------|
A|------------|
E|------------|

[Guitar]
e|-7-7-7-7-x-x-x-x-|-7-7-7-7-x-x-x-x-|-12-12-12-12-x-x-x-x-|12-12-12-12-x-x-x-x-|
B|-8-8-8-8-x-x-x-x-|-8-8-8-8-x-x-x-x-|-12-12-12-12-x-x-x-x-|12-12-12-12-x-x-x-x-|
G|-9-9-9-9-x-x-x-x-|-9-9-9-9-x-x-x-x-|-12-12-12-12-x-x-x-x-|12-12-12-12-x-x-x-x-|
D|-9-9-9-9-x-x-x-x-|-9-9-9-9-x-x-x-x-|---------------------|--------------------|
A|-7-7-7-7-x-x-x-x-|-7-7-7-7-x-x-x-x-|---------------------|--------------------|
E|-----------------|-----------------|---------------------|--------------------|

[Keyboard arranged for guitar]
e|------------|
B|------12----|
G|-9-12----9:-|
D|------------|
A|------------|
E|------------|

[Guitar]
e|-----5\1-x-x-x-x-x-x-|-----5\1-x-x-x-x-x-x-|
B|-----6\2-x-x-x-x-x-x-|-----6\2-x-x-x-x-x-x-|
G|-----7\3-x-x-x-x-x-x-|-----7\3-x-x-x-x-x-x-|
D|---------------------|---------------------|
A|-5-5-----------------|-5-5-----------------|
E|---------------------|---------------------|

[Keyboard arranged for guitar]
e|------------|
B|------10----|
G|-7-10----7:-|
D|------------|
A|------------|
E|------------|

[Guitar]
e|-7-7-7-7-x-x-x-x-|-7-7-7-7-x-x-x-x-|-12-12-12-12-x-x-x-x-|12-12-x-x-12-12-x-x-|
B|-8-8-8-8-x-x-x-x-|-8-8-8-8-x-x-x-x-|-12-12-12-12-x-x-x-x-|12-12-x-x-12-12-x-x-|
G|-9-9-9-9-x-x-x-x-|-9-9-9-9-x-x-x-x-|-12-12-12-12-x-x-x-x-|12-12-x-x-12-12-x-x-|
D|-9-9-9-9-x-x-x-x-|-9-9-9-9-x-x-x-x-|---------------------|--------------------|
A|-7-7-7-7-x-x-x-x-|-7-7-7-7-x-x-x-x-|---------------------|--------------------|
E|-----------------|-----------------|---------------------|--------------------|

[Keyboard arranged for guitar]
e|------------|
B|------12----|
G|-9-12----9:-|
D|------------|
A|------------|
E|------------|

[Guitar]
e|-----5\1-x-x-x-x-x-x-|-----5\1-x-x-x-x-x-x-|
B|-----6\2-x-x-x-x-x-x-|-----6\2-x-x-x-x-x-x-|
G|-----7\3-x-x-x-x-x-x-|-----7\3-x-x-x-x-x-x-|
D|---------------------|---------------------|
A|-5-5-----------------|-5-5-----------------|
E|---------------------|---------------------|

[Keyboard arranged for guitar]
e|------------|
B|------10----|
G|-7-10----7:-|
D|------------|
A|------------|
E|------------|

[Guitar]
e|-7-7-7-7-x-x-x-x-|-7-7-7-7-x-x-x-x-|-12-12-12-12-x-x-x-x-|12-12-12-12-x-x-x-x-|
B|-8-8-8-8-x-x-x-x-|-8-8-8-8-x-x-x-x-|-12-12-12-12-x-x-x-x-|12-12-12-12-x-x-x-x-|
G|-9-9-9-9-x-x-x-x-|-9-9-9-9-x-x-x-x-|-12-12-12-12-x-x-x-x-|12-12-12-12-x-x-x-x-|
D|-9-9-9-9-x-x-x-x-|-9-9-9-9-x-x-x-x-|---------------------|--------------------|
A|-7-7-7-7-x-x-x-x-|-7-7-7-7-x-x-x-x-|---------------------|--------------------|
E|-----------------|-----------------|---------------------|--------------------|

[Keyboard arranged for guitar]
e|------------|
B|------12----|
G|-9-12----9:-|
D|------------|
A|------------|
E|------------|

[Guitar]
e|-----5\1-x-x-x-x-x-x-|-----5\1-x-x-x-x-x-x-|
B|-----6\2-x-x-x-x-x-x-|-----6\2-x-x-x-x-x-x-|
G|-----7\3-x-x-x-x-x-x-|-----7\3-x-x-x-x-x-x-|
D|---------------------|---------------------|
A|-5-5-----------------|-5-5-----------------|
E|---------------------|---------------------|

[Keyboard arranged for guitar]
e|------------|
B|------10----|
G|-7-10----7:-|
D|------------|
A|------------|
E|------------|

[Bridge]
[Keyboard arranged for guitar]
e|----------|-12:-|
B|------12:-|-----|
G|-9-12-----|-----|
D|----------|-----|(x4)
A|----------|-----|
E|----------|-----|

[Keyboard arranged for guitar]
e|----------|----------|
B|------12:-|------10:-|
G|-9-12-----|-7-10-----|
D|----------|----------|(x4)
A|----------|----------|
E|----------|----------|

[Guitar]
e|-7-7-7-7-7-7-7-7-7-7-7-7-7-7-7-7-|
B|-8-8-8-8-8-8-8-8-8-8-8-8-8-8-8-8-|
G|-9-9-9-9-9-9-9-9-9-9-9-9-9-9-9-9-|
D|-9-9-9-9-9-9-9-9-9-9-9-9-9-9-9-9-|
A|-7-7-7-7-7-7-7-7-7-7-7-7-7-7-7-7-|
E|---------------------------------|

[Outro]
[Keyboard arranged for guitar]
e|------------|
B|------------|
G|-9--9--9-9:-|
D|------------|
A|------------|
E|------------|

[Song structure]
[Verse 1 x4]
[Verse 2]
[Chorus 1 x4]
[Verse 1 bis]
[Chorus 2]
[Bridge]
[Chorus 2]
[Outro]

[Lyrics]
ooohh oh ooooh, oh oh oh ohhh
ooohh oh ooooh, oh oh oh ohhh

It’s a cruel cruel world to face on your own
A heavy cross to carry along
The lights are on but everyone’s gone
And it’s cruel

It’s a funny way to make ends meet
When the lights are out on every street
It feels alright but never complete
Without joy

I checked you
If it’s already been done, undo it
It takes two
It’s up to me and you to prove it

On the rainy nights, even the coldest days
You’re moments ago but seconds away
The principle of nature, it’s true but
It’s a cruel world

ooooh oooh oohh, ooh ooh oooh ooh, ooo wooah

We can play it safe or play it cool
Follow the leader or make up all the rules
Whatever you want the choice is yours
So choose

I checked you
If it’s already been done, undo it
It takes two
It’s up to me and you to prove it

ei ei ei ei ei, oh oh oh oh oh, ye oh oh,
ei ei ei ei ei, oh oh oh oh oh, ye eh, ye eh, ye eh,

I trust you
If it’s already been done, undo it
It takes two
It’s up to me and you to prove it

ei ei ei, woah wo, yeah eh
ei ei ei ei ei, oh oh oh oh oh, ye eh, ye eh, ye eh,

I checked you
If it’s already been done, undo it
It takes two
It’s up to me and you to prove it

ei ei ei ei ei, oh oh oh oh oh, ye oh oh,
ei ei ei, oh oh oh oh oh, ye eh, ye eh, ye eh,

I just knew

************************************

| .  Staccato
| /  Slide up
| x  Dead note
| \  Slide down

************************************

            
            
Suggest correction
Creating personal tab
Creating personal tab
You can edit any tab online and save it as your Personal.

You can edit, replace or remove any tab part or add personal notes – all changes will be seen only by you.

Personal tabs can be accessed anytime from any device, even offline.
Learn more »
Give kudos to tab author, rate the tab!
1 2 3 4 5
comments
print report bad tab
guest
You may want to rate the tab now too:
select rating
Wanna post a correction for this tab? Suggest correction