Oops, an error
Loading. Please wait.

Yr Mangled Heart tab

version 1
version 1

Whole song

by gossip
5,995 views 1 this week
no commentswrite comment
1 2 3 4 5
x 3
add to favorites
×
Save as Personal and add changes to this tab that will be seen only by you. Learn more ›
×
You can save this tab as Personal to edit and correct it or add notes. All changes will be seen only by you. Learn more »
launch autoscroll
font size
0
reset
how to read this tab
guitar tuner
edit
Autoscroll
slow
fast
+/-
esc
set tempo
stop
Tabbed By: Carolyn O. 6/17/06
Artist: The Gossip http://www.gossipyouth.com/
Song: Yr Mangled Heart
Email: entirely_smooth_chick@hotmail.com

Gossip is amazing.
I've been wanting to learn some of their songs for a while. No tabs.
So i tabbed this new one for starters;but dont worry i'll be putting some of their old songs up to.
peace!<3



INTRO:
E-----------------------------------------------]
B-----------------------------------------------]
G-----------------5\----------------------------] X3
D-------------------------33-------55-----------]
A-----------------------------------------------]
E--5-5--3--55---------1------1/3----------------]

ENDING INTRO

E---------------------------------------]
B---------------------------------------]
G---------------5\----------------------]
D--------------------3~---3/5-----------]
A--------------------X------------------]
E--5-5--3--55--------1~-----------------]

VERSE: "If everything i do..."

E------------------------------------------]
B------------------------------------------]
G-------------5\----------------55---------][PALM MUTED THROUGHOUT VERSE]
D---------------------33-------------------]
A------------------------------------------]
E--5-5--3-55------1-------1/3--------------]
   . .  . ..      .   ..        ..


CHORUS:"Yr Mangled heart"
E---------------------------------------------]
B---------------------------------------------]
G---------------------------------------------]
D--------77-------77------10~-----------------]
A---------------------------------------------]
E--3--5------3--5------/8-------0-3-0-3-0-----]

INTRO AGAIN
VERSE 2 SAME AS VERSE 1
CHORUS


BRIDGE:
E-------------------------------------------------------------------]
B-------------------------------------------------------------------]
G----5---5---5---5---5---5---7---5---5--5---5---5---7---7---7--7--7-]
D--3---3---3---3---3---3---5---5---3---3--3---3---5--5---5---5---5--]
A-------------------------------------------------------------------]
E-------------------------------------------------------------------]

REPEAT THROUGH BRIDGE:
"I Dont want the world I only want what I deserve"


CHORUS TO THE END
*DISCO BEAT*










            
            
Suggest correction
Creating personal tab
Creating personal tab
You can edit any tab online and save it as your Personal.

You can edit, replace or remove any tab part or add personal notes – all changes will be seen only by you.

Personal tabs can be accessed anytime from any device, even offline.
Learn more »
Give kudos to tab author, rate the tab!
1 2 3 4 5
comments
print report bad tab
guest
You may want to rate the tab now too:
select rating
Wanna post a correction for this tab? Suggest correction