Oops, an error
Loading. Please wait.

Just Right chords

version 2
version 2

Whole song

Interactive

by Got7
1,027 views 36 this week
no commentswrite comment
1 2 3 4 5
3 more votes to show rating
add to favorites
×
Save as Personal and add changes to this tab that will be seen only by you. Learn more ›
×
You can save this tab as Personal to edit and correct it or add notes. All changes will be seen only by you. Learn more »
launch autoscroll
font size
0
reset
transpose
0
reset
display chords
guitar tuner
edit
Autoscroll
slow
fast
+/-
esc
set tempo
stop
Strumming
There is no strumming pattern for this song yet. and get +5 IQ
[Intro]

N.C.
Baby, you are just…
N.C.
Just right

[Rap 1]
A
geoura geoura jebal jom malhaejuryeomuna
A
jeoura neodo malhaejuryeomuna
A
amugeotdo bakkul piryo eopsi yeppeudago
A
jigeum geu moseup geudaero wanbyeokhadago

[Rap 2]
A
manyang haengbokhamyeon dwae geokjeong eopsi
A
bujokhan jeomi mwonji chatgi eopgi
A
geoul daesin geunyang nae nun bicheul barabwa
A
jeoul daesin nae deung wie ollatabwa bwa

[Pre-Chorus]
A
amuri neol tteudeobwado

bogo tto bogo tto bwado
F#m
niga malhaneun an yeppeun 
D
bubuni eodinji geuge eodinji chajeul suga eopseo nan

[Chorus 1]
               A
jigeumcheoreom manmanmanmanman man

isseojumyeon nannannannannan
        F#m
baralge eopseuni neon amugeotdo

bakkuji mamamamama

[Chorus 2]
            D
amu geokjeongmamamamamama

neoui modeunge dadadada
        Bm
da joheunikka neoneun amugeotdo

bakkuji mamamamama

[Outro]
      E                  F#m
idaero~ (jigeum idaero) oh~ (geunyang idaero)
 Gm
oh~ (jigeum idaero) 
N.C.
oh oh oh isseumyeon dwae

[Instrumental]
A

(Guitar 1)
E|--------------------------|
B|--------------------------|
E|--------------------------|
D|--------------------------|
A|---7-5-4---7-5-4----------|
E|-5-------5----------------|

(Guitar 2)
E|--------------------------|
B|--------------------------|
E|---------6---------6------|
D|-7-7-7-7---7-7-7-7---7-7--|
A|--------------------------|
E|--------------------------|

[Rap 3]
A
ttak joha neoui modeun ge geureoni ne mam
A
noha amu geokjeonghaji ma i mal
A
baek peosenteu da geudaero mideodo dwae
A
modeun geokjeong baek peosenteu da jiwodo dwae

[Pre-Chorus]
A
amuri neol tteudeobwado

bogo tto bogo tto bwado
F#m
niga malhaneun an yeppeun 
D
bubuni eodinji geuge eodinji chajeul suga eopseo nan

[Chorus 1]
               A
jigeumcheoreom manmanmanmanman man

isseojumyeon nannannannannan
        F#m
baralge eopseuni neon amugeotdo

bakkuji mamamamama

[Chorus 2]
            D
amu geokjeongmamamamamama

neoui modeunge dadadada
        Bm
da joheunikka neoneun amugeotdo

bakkuji mamamamama

[Bridge]
      E                  F#m
idaero~ (jigeum idaero) oh~ (geunyang idaero)
 Gm
oh~ (jigeum idaero) 
N.C.
oh oh oh isseumyeon dwae

[Instrumental]
A

(Guitar 1)
E|--------------------------|
B|--------------------------|
E|--------------------------|
D|--------------------------|
A|---7-5-4---7-5-4----------|
E|-5-------5----------------|

(Guitar 2)
E|--------------------------|
B|--------------------------|
E|---------6---------6------|
D|-7-7-7-7---7-7-7-7---7-7--|
A|--------------------------|
E|--------------------------|

[Bridge]
N.C.
oge tido tiga naya channeun geoji won
N.C.
nunbusige binna binteumi eopji neon
N.C.
nae nune eolmana yeppeunji I want you
N.C.
jigeum idaero you’re the only one
A
oge tido tiga naya channeun geoji won
A
nunbusige binna binteumi eopji neon
A
nae nune eolmana yeppeunji I want you
A
jigeum idaero you’re the only one

[Chorus]
               A
jigeumcheoreom manmanmanmanman man

isseojumyeon nannannannannan
        F#m
baralge eopseuni neon amugeotdo

bakkuji mamamamama

[Chorus 2]
            D
amu geokjeongmamamamamama

neoui modeunge dadadada
        Bm
da joheunikka neoneun amugeotdo

bakkuji mamamamama

[Outro]
A

(Guitar 1)
E|--------------------------|
B|--------------------------|
E|--------------------------|
D|--------------------------|
A|---7-5-4---7-5-4----------|
E|-5-------5----------------|

(Guitar 2)
E|--------------------------|
B|--------------------------|
E|---------6---------6------|
D|-7-7-7-7---7-7-7-7---7-7--|
A|--------------------------|
E|--------------------------|

            
            
Suggest correction
Creating personal tab
Creating personal tab
You can edit any tab online and save it as your Personal.

You can edit, replace or remove any tab part or add personal notes – all changes will be seen only by you.

Personal tabs can be accessed anytime from any device, even offline.
Learn more »
Give kudos to tab author, rate the tab!
1 2 3 4 5
comments
print report bad tab
guest
You may want to rate the tab now too:
select rating
Wanna post a correction for this tab? Suggest correction