Oops, an error
Loading. Please wait.

Dazed Tab

7 views 7 this week
no commentswrite comment
1 2 3 4 5
3 more votes to show rating
add to favorites
launch autoscroll
font size
0
reset
how to read this tab
guitar tuner
Autoscroll
slow
fast
+/-
esc
set tempo
stop
Help us to improve Ultimate-Guitar.com Take our survey!
×
Author
Difficulty
novice
[Intro]
Lead guitar:
e|---------------------------------------------------------------------------|
B|---------------------------------------------------------------------------|
G|--2-2-2-2-2-2-2-2-2-2-2---5-5-5-3----2-2-2-2-2-2-2-2-2-2-2---------0-2-----|
D|-------------------------------------------------------------3-3-3---------|
A|---------------------------------------------------------------------------|
E|---------------------------------------------------------------------------|


e|---------------------------------------------------------------------------|
B|---------------------------------------------------------------------------|
G|--2-2-2-2-2-2-2-2-2-2-2---5-5-5-3----2-2-2-2-2-2-2-2-2-2-2---------0-2-----|
D|-------------------------------------------------------------3-3-3---------|
A|---------------------------------------------------------------------------|
E|---------------------------------------------------------------------------|

Rhythm guitar:

(Cmaj7, Dmaj7)

e|-3--5--5-5-3-2---------------------------------------------------------------|
B|-5--7------------------------------------------------------------------------|
G|-4--6------------------------------------------------------------------------|
D|-5--7------------------------------------------------------------------------|
A|-3--5------------------------------------------------------------------------|
E|-x--x------------------------------------------------------------------------|

The rhythm guitar plays this little progression throughout the whole song besides
the chorus, where both of the guitars play the power chords

[Verse]
e|---------------------------------------------------------------------------|
B|---------------------------------------------------------------------------|
G|--2-2-2-2-2-2-2-2-2-2-2---5-5-5-3----2-2-2-2-2-2-2-2-2-2-2---------0-2-----|
D|-------------------------------------------------------------3-3-3---------|
A|---------------------------------------------------------------------------|
E|---------------------------------------------------------------------------|

[Chorus]
e|---------------------------------------------------------------------------|
B|---------------------------------------------------------------------------|
G|----------------333333-----------------------------------------------------|
D|----555555------333333-------333333333333----------------------------------|
A|----555555------111111-------333333333333----------------------------------|
E|----333333-------------------111111111111----------------------------------|

e|---------------------------------------------------------------------------|
B|---------------------------------------------------------------------------|
G|----------------333333-----------------------------------------------------|
D|----555555------333333-------333333333333----------------------------------|
A|----555555------111111-------333333333333----------------------------------|
E|----333333-------------------111111111111----------------------------------|

[Outro]
e|---------------------------------------------------------------------------|
B|---------------------------------------------------------------------------|
G|---------------------------------------------------------------------------|
D|---5-----------------------------------------------------------------------|
A|---5-----------------------------------------------------------------------|
E|---3-----------------------------------------------------------------------|



************************************

| x  Dead note

************************************
Suggest correction
Give kudos to tab author, rate the tab!
1 2 3 4 5
comments
print report bad tab
guest
You may want to rate the tab now too:
select rating
Wanna post a correction for this tab? Suggest correction