Oops, an error
Loading. Please wait.

Hush Bass Tab

version 1
version 1

Whole song

Interactive

6,979 views 18 this week
no commentswrite comment
1 2 3 4 5
please rate
add to favorites
launch autoscroll
font size
0
reset
guitar tuner
Tab Pro tools
  • play this tab
  • loop segment
  • change instrument
  • show fretboard
  • metronome
Autoscroll
slow
fast
+/-
esc
set tempo
stop
Difficulty
novice
Intro (start at 0.8)		II volta
	X4   x1		x1	x1
G|-------------------|-----------------------------------------------|
D|-------------------|-----------------------------------------------|
A|-------------------|---3-3-3-3-----------5-5-5-5-------------------|
E|------0x16---------|-------------3-3-3-3-----------5-5-5-5---------|

Riff 1
G|-------------------|
D|-------------------|
A|-------------------|
E|------0x16---------|

Verse		X4
G|---------------------|
D|---------------------|
A|---------------------|
E|----0x6-0/3/5--------|

Pre-chorus
G|----------------------------------------------|
D|----------------------------------------------|
A|--3-3-3-3-----------5-5-5-5-------------------|
E|-------------3-3-3-3-----------5-5-5-5--------|

Chorus                                                              End of chorus
G|-----------------------------------------------|     |-------------------|
D|-----------------------------------------------|     |-------------------|
A|------------------------------------5-5-5-5----| x4    |-----------------|  x4
E|---0-0-0/3---0-0-0/3---5-5-5-5-----------------|       |---s0-s0---------|

Pre-chorus 2
G|----------------------------------------------|
D|----------------------------------------------|
A|--3-3-3-3-----------5-5-5-5---------3---------|
E|-------------3-3-3-3-----------5-3-5----------|

Pre-chorus3
G|--------------------------------------------------------|
D|---------1--------------------------3-------------------|
A|--3-1-3--------------1-----5-3-5--------------3---------|
E|---------------3-1-3---------------------5-3-5----------|

End
E|---00-00---00-00----|
comments
We did not receive enough feedback on this tab! Please rate:
print report bad tab
1 2 3 4 5
I want to post or [tab]
guest
You may want to rate the tab now too:
select rating
Please do not post tabs as comments. Select "correction" instead!