Oops, an error
Loading. Please wait.

Somebody I Used To Know Tab

20,522 views 1 this week
no commentswrite comment
1 2 3 4 5
please rate
add to favorites
launch autoscroll
font size
0
reset
how to read this tab
guitar tuner
Autoscroll
slow
fast
+/-
esc
set tempo
stop
Help us to improve Ultimate-Guitar.com Take our survey!
×
Author
Capo
5th fret
This is how I play the song. It's not exactly the same as the original song, but it's 
great if it's the only instrument that is being played, like if you're playing an acoustic set.
This song is really simple to play. It's pretty much the same thing repeated over and 
over, but still sounds pretty cool. I won't post the lyrics or the amount of times 
everything is played because it's so repetitive.

The lines of all "x's" means to slap the strings.

Standard Tuning

Capo 5th Fret

Chords used
    Am    G     F
e|--0--|--3--|--1--|
B|--1--|--0--|--1--|
G|--2--|--0--|--2--|
D|--2--|--0--|--3--|
A|--0--|--2--|--3--|
E|--x--|--3--|--1--|

Intro
      Am         G          Am         G
e|-------x--|-------x--|-------x--|-------x--|
B|----1--x--|----0--x--|----1--x--|----0--x--|
G|----2--x--|----0--x--|----2--x--|----0--x--|
D|-------x--|-------x--|-------x--|-------x--|
A|--0----x--|-------x--|--0----x--|-------x--|
E|-------x--|--3----x--|-------x--|--3----x--|

Verses 1 & 2

      Am         G          Am         G
e|-------x--|-------x--|-------x--|-------x--|
B|----1--x--|----0--x--|----1--x--|----0--x--|
G|----2--x--|----0--x--|----2--x--|----0--x--|
D|-------x--|-------x--|-------x--|-------x--|
A|--0----x--|-------x--|--0----x--|-------x--|
E|-------x--|--3----x--|-------x--|--3----x--|

Chorus

     Am          G          F          G
e|-------x--|-------x--|-------x--|-------x--|
B|----1--x--|----0--x--|----1--x--|----0--x--|
G|----2--x--|----0--x--|----2--x--|----0--x--|
D|----2--x--|----0--x--|----3--x--|----0--x--|
A|--0----x--|-------x--|-------x--|-------x--|
E|-------x--|--3----x--|--1----x--|--3----x--|

Interlude

e|-------x--|-------x--|-------x--|-------x--|
B|----1--x--|----0--x--|----1--x--|----0--x--|
G|----2--x--|----0--x--|----2--x--|----0--x--|
D|----2--x--|----0--x--|----2--x--|----0--x--|
A|--0----x--|-------x--|--0----x--|-------x--|
E|-------x--|--3----x--|-------x--|--3----x--|


Verse 3

     Am          G          Am         G
e|-------x--|-------x--|-------x--|-------x--|
B|----1--x--|----0--x--|----1--x--|----0--x--|
G|----2--x--|----0--x--|----2--x--|----0--x--|
D|----2--x--|----0--x--|----2--x--|----0--x--|  
A|--0----x--|-------x--|--0----x--|-------x--|  
E|-------x--|--3----x--|-------x--|--3----x--|

Starting with the lyrics "But I don't want to live that way" through the rest of 
the verse you play.

 Am          G          F          G
e|-------x--|-------x--|-------x--|-------x--|
B|----1--x--|----0--x--|----1--x--|----0--x--|
G|----2--x--|----0--x--|----2--x--|----0--x--|   The last "G" of the verse is 
D|----2--x--|----0--x--|----3--x--|----0--x--|   strummed.
A|--0----x--|-------x--|-------x--|-------x--|
E|-------x--|--3----x--|--1----x--|--3----x--|


Chorus & Outro

     Am          G          F          G
e|-------x--|-------x--|-------x--|-------x--|
B|----1--x--|----0--x--|----1--x--|----0--x--|
G|----2--x--|----0--x--|----2--x--|----0--x--|
D|----2--x--|----0--x--|----3--x--|----0--x--|
A|--0----x--|-------x--|-------x--|-------x--|
E|-------x--|--3----x--|--1----x--|--3----x--|

The very last note is 'Am' plucked.

e|-----|
B|--1--|
G|--2--|
D|--2--|
A|--0--|
E|-----|
Suggest correction
Give kudos to tab author, rate the tab!
1 2 3 4 5
comments
print report bad tab
guest
You may want to rate the tab now too:
select rating
Wanna post a correction for this tab? Suggest correction