Oops, an error
Loading. Please wait.

Somebody That I Used To Know Bass Tab

version 2
version 2

Whole song

Interactive

9,167 views 3 this week
1 commentread comment
1 2 3 4 5
please rate
add to favorites
launch autoscroll
font size
0
reset
guitar tuner
Autoscroll
slow
fast
+/-
esc
set tempo
stop
Help us to improve Ultimate-Guitar.com Take our survey!
×
Author
Difficulty
novice
G|----------------------------------------------|
D|----------------------------------------------|
A|----------------------------------------------|
E|----10---10-8----8-10---10-8--------8---------| Repeat till chorus

G|----------------------------------------------------------|
D|----------------------------------------------------------|
A|----------------------------------------------------------|
E|----10----10-8----8-6----6-8------8-10--------------------| repeat till chorus is over
When kimbra says but i don't want to live this way play this until the chorus starts again

G|---------------------------------------------------------------------------|
D|---------------------------------------------------------------------------|
A|---------------------------------------------------------------------------|
E|----8-8-8-----8-8-----8-8------8-8-----------------------------------------|
Suggest correction
Give kudos to tab author, rate the tab!
1 2 3 4 5
comments
print report bad tab
1 comment total.
0 reply
revdrslim 10 wrote on August 10 2012, 02:47 pm

Chorus
G|----------------------------------------------------------|
D|----------------------------------------------------------|
A|----------------------------------------------------------|
E|----10----10-8----8-6----6-8------8-10--------------------
|
and alternate
G|----------------------------------------------------------|
D|----------------------------------------------------------|
A|----------------------------------------------------------|
E|----10----10-8----8-6----6-8-8----10----------------------

Actually When kimbra says but i don't want to live this way play this until the chorus starts again

G|---------------------------------------------------------------------------|
D|---------------------------------------------------------------------------|
A|---------------------------------------------------------------------------|
E|----8--8-8-----8--8-8----8--8-8--------8-8---------------------------------| X8

guest
You may want to rate the tab now too:
select rating
Wanna post a correction for this tab? Suggest correction