Oops, an error
Loading. Please wait.

Somebody That I Used To Know Tab

version 2
version 2

Whole song

Video

68,985 views 69 this week
no commentswrite comment
1 2 3 4 5
please rate
add to favorites
launch autoscroll
font size
0
reset
how to read this tab
guitar tuner
Tab Pro tools
  • play this tab
  • loop segment
  • change instrument
  • show fretboard
  • metronome
×
Best way to learn
"Somebody That I Used To Know"
Autoscroll
slow
fast
+/-
esc
set tempo
stop
Contributor
#----------------------------------PLEASE NOTE--------------------------------#
#This file is the author's own work and represents their interpretation of the#
#song. You may only use this file for private study, scholarship, or research.#
#-----------------------------------------------------------------------------#
#-- File created with Instab - http://www.pconline.com/~smcarey/instab.html --#
#-----------------------------------------------------------------------------#


Gotye - Somebody That I Used To Know

m mute

* Play in relatively same position as tab.

Tuning (eb A D G B E), Down ~ 10%, (eb, D) Down ~ 20%
Live Standard Tuning, Down ~ 10%
Bedroom Tuning* (eb A D G B E)
Key: (D + C#)



----|-----------|---------------|--|-1--1--------|
----|-----------|---------------|--|-3--3--------|
----|----x------|-x------x------|--|-------------|
----|----x------|-x------x------|--|-------------|
----|-5----3-3--|---5-5----3-3--|--|-------------|
----|-----------|---------------|--|-------------|
   
  
  G1 Intro                           Fill 1




----|-----------------|--|
----|-----------------|--|
----|-x------x--------|--|
----|-x------x--------|--|
----|---3-5----3-3-3--|--|
----|-----------------|--|

  
  G1 Verse



----|--------------------------------------------------------|
----|--------------------------------------------------------|
----|--------------------------------------------------------|
----|-18---21--18------------------18---21--18---------------|
----|-------------21---16---19--21-------------21--16---16---|
----|--------------------------------------------------------|
    
  
  G2 Fill 2



----|-----------------------------|--|
----|-----------------------------|--|
----|-x------x------x------x------|--|
----|-x------x------x------x------|--|
----|---5-5----3-3----1-1----3-3--|--|
----|-----------------------------|--|
   
  
  G1 Chorus 




----|-------19----------|----------------19----------------|
----|-20--------19--20--|--------19-21-------19--21--------|
----|-------------------|-21------------------------20-20--|
----|-------------------|----21----------------------------|
----|-------------------|----------------------------------|
----|-------------------|----------------------------------|

  
  G2 Chorus Fill
comments
We did not receive enough feedback on this tab! Please rate:
print report bad tab
1 2 3 4 5
I want to post or [tab]
guest
You may want to rate the tab now too:
select rating
Please do not post tabs as comments. Select "correction" instead!