Oops, an error
Loading. Please wait.
We have Chord Pro version of Somebody That I Used To Know.
It's the closest thing you can get to the original song and it has interactive parts. Check out the tab »
×

Somebody That I Used To Know tab

version 8
version 8

Whole song

Video

by Gotye
52 views 1 this week
no commentswrite comment
1 2 3 4 5
3 more votes to show rating
add to favorites
×
Save as Personal and add changes to this tab that will be seen only by you. Learn more ›
×
You can save this tab as Personal to edit and correct it or add notes. All changes will be seen only by you. Learn more »
launch autoscroll
font size
0
reset
how to read this tab
guitar tuner
backing track
0:00
0:00
edit
Autoscroll
slow
fast
+/-
esc
set tempo
stop
[Intro]
e|--------------------------5----6----8-----6-------------------------------------------------|
B|----------------8----8-------------------------8-----6----6----5----------------------------|
G|------5----5--------------------------------------------------------7----7----5-------------|
D|--------------------------------------------------------------------------------------------|
A|--------------------------------------------------------------------------------------------|
E|--------------------------------------------------------------------------------------------|

e|--------------------------5----6----8-----6-------------------------------------------------|
B|----------------8----8-------------------------8---------------5----------------------------|
G|------5----5-----------------------------------------7----7---------7----7------------------|
D|--------------------------------------------------------------------------------------------|
A|--------------------------------------------------------------------------------------------|
E|--------------------------------------------------------------------------------------------|

[Verse 1]
e|------5----5------------------------8----5--------------------------------------------------|
B|----------------8----8----8----8--------------8----6----5-----------------------------------|
G|-------------------------------------------------------------7------------------------------|
D|--------------------------------------------------------------------------------------------|
A|--------------------------------------------------------------------------------------------|
E|--------------------------------------------------------------------------------------------|

e|------5----5------------------------8----5--------------5-----------------------------------|
B|----------------8----8----8----8--------------8----6----------------------------------------|
G|--------------------------------------------------------------------------------------------|
D|--------------------------------------------------------------------------------------------|
A|--------------------------------------------------------------------------------------------|
E|--------------------------------------------------------------------------------------------|

e|------5----5------------------------8----5--------------------------------------------------|
B|----------------8----8----8----8--------------8----6----6----7----7----7----7----6----------|
G|--------------------------------------------------------------------------------------7----7|
D|--------------------------------------------------------------------------------------------|
A|--------------------------------------------------------------------------------------------|
E|--------------------------------------------------------------------------------------------|

e|------5----5------------------------8----5--------------------------------------------------|
B|----------------8----8----8----8--------------8----6----5-----------------------------------|
G|-------------------------------------------------------------7------------------------------|
D|--------------------------------------------------------------------------------------------|
A|--------------------------------------------------------------------------------------------|
E|--------------------------------------------------------------------------------------------|

[Bridge]
e|------5---------8----5------------------------5--------8----5--------------|
B|--------------------------8---------8----6-----------------------8---------|
G|-------------------------------5--------------------------------------5----|
D|---------------------------------------------------------------------------|
A|---------------------------------------------------------------------------|
E|---------------------------------------------------------------------------|

[Verse 2]
e|------5----5------------------------8----5--------------------------------------------------|
B|----------------8----8----8----8--------------8----6----5-----------------------------------|
G|-------------------------------------------------------------7------------------------------|
D|--------------------------------------------------------------------------------------------|
A|--------------------------------------------------------------------------------------------|
E|--------------------------------------------------------------------------------------------|

e|------5----5------------------------8----5--------------5-----------------------------------|
B|----------------8----8----8----8--------------8----6----------------------------------------|
G|--------------------------------------------------------------------------------------------|
D|--------------------------------------------------------------------------------------------|
A|--------------------------------------------------------------------------------------------|
E|--------------------------------------------------------------------------------------------|

e|------5----5------------------------8----5--------------------------------------------------|
B|----------------8----8----8----8--------------8----6----6----7----7----7----7----6----------|
G|--------------------------------------------------------------------------------------7----7|
D|--------------------------------------------------------------------------------------------|
A|--------------------------------------------------------------------------------------------|
E|--------------------------------------------------------------------------------------------|

e|------5----5------------------------8----5--------------------------------------------------|
B|----------------8----8----8----8--------------8----6----5-----------------------------------|
G|-------------------------------------------------------------7------------------------------|
D|--------------------------------------------------------------------------------------------|
A|--------------------------------------------------------------------------------------------|
E|--------------------------------------------------------------------------------------------|

[Chorus]
e|------------------------------------6----5----5---------5------------------------8----8----8----8|
B|---------------------6----6------------------------8---------8----8----8----8--------------------|
G|------5----5----7--------------7-----------------------------------------------------------------|
D|-------------------------------------------------------------------------------------------------|
A|-------------------------------------------------------------------------------------------------|
E|-------------------------------------------------------------------------------------------------|

e|------6----5----------------------------------------6----5----5------------------5----5----------|
B|----------------8----6---------------6----6---------------------------------8--------------8----8|
G|---------------------------5----7--------------7-------------------7---7-------------------------|
D|-------------------------------------------------------------------------------------------------|
A|-------------------------------------------------------------------------------------------------|
E|-------------------------------------------------------------------------------------------------|

e|-----------------------------------------------------------------6----5----5-------------5-------|
B|--------------------------------------------------6----6----------------------------8---------8--|
G|------7----7----7----5----5--------5----5----7--------------7------------------------------------|
D|-------------------------------------------------------------------------------------------------|
A|-------------------------------------------------------------------------------------------------|
E|-------------------------------------------------------------------------------------------------|

e|---------------------8----8----8----8----6----5--------------------------------------5-----------|
B|------8----8----8----------------------------------8----6-------------6----6--------------8----8-|
G|-----------------------------------------------------------------7--------------7----------------|
D|-------------------------------------------------------------------------------------------------|
A|-------------------------------------------------------------------------------------------------|
E|-------------------------------------------------------------------------------------------------|

e|-----------5----5----5---------------------------------------------------------------------------|
B|------8-------------------6----8----8----8----8----6----6----------------------------------------|
G|-------------------------------------------------------------------------------------------------|
D|-------------------------------------------------------------------------------------------------|
A|-------------------------------------------------------------------------------------------------|
E|-------------------------------------------------------------------------------------------------|

e|--------------------------5----6----8-----6---------5----5----5-----------------------------------|
B|----------------8----8-------------------------8-------------------6----8----8----8----8----6----6|
G|------5----5--------------------------------------------------------------------------------------|
D|--------------------------------------------------------------------------------------------------|
A|--------------------------------------------------------------------------------------------------|
E|--------------------------------------------------------------------------------------------------|

e|--------------------------5----6----8-----6---------5----5----5-----------------------------------|
B|----------------8----8-------------------------8-------------------6----8----8----8----8----6----6|
G|------5----5--------------------------------------------------------------------------------------|
D|--------------------------------------------------------------------------------------------------|
A|--------------------------------------------------------------------------------------------------|
E|--------------------------------------------------------------------------------------------------|

[Bridge]
e|------5---------8----5------------------------5--------8----5--------------|
B|--------------------------8---------8----6-----------------------8---------|
G|-------------------------------5--------------------------------------5----|
D|---------------------------------------------------------------------------|
A|---------------------------------------------------------------------------|
E|---------------------------------------------------------------------------|

[Verse 3]
e|------5----5------------------------8----5--------------------------------------------------|
B|----------------8----8----8----8--------------8----6----5-----------------------------------|
G|-------------------------------------------------------------7------------------------------|
D|--------------------------------------------------------------------------------------------|
A|--------------------------------------------------------------------------------------------|
E|--------------------------------------------------------------------------------------------|

e|------5----5------------------------8----5--------------5-----------------------------------|
B|----------------8----8----8----8--------------8----6----------------------------------------|
G|--------------------------------------------------------------------------------------------|
D|--------------------------------------------------------------------------------------------|
A|--------------------------------------------------------------------------------------------|
E|--------------------------------------------------------------------------------------------|

e|------5----5------------------------8----5--------------------------------------------------|
B|----------------8----8----8----8--------------8----6----6----7----7----7----7----6----------|
G|--------------------------------------------------------------------------------------7----7|
D|--------------------------------------------------------------------------------------------|
A|--------------------------------------------------------------------------------------------|
E|--------------------------------------------------------------------------------------------|

e|------5----5------------------------8----5--------------------------------------------------|
B|----------------8----8----8----8--------------8----6----5-----------------------------------|
G|-------------------------------------------------------------7------------------------------|
D|--------------------------------------------------------------------------------------------|
A|--------------------------------------------------------------------------------------------|
E|--------------------------------------------------------------------------------------------|

[Chorus]
e|------------------------------------6----5----5---------5------------------------8----8----8----8|
B|---------------------6----6------------------------8---------8----8----8----8--------------------|
G|------5----5----7--------------7-----------------------------------------------------------------|
D|-------------------------------------------------------------------------------------------------|
A|-------------------------------------------------------------------------------------------------|
E|-------------------------------------------------------------------------------------------------|

e|------6----5----------------------------------------6----5----5------------------5----5----------|
B|----------------8----6---------------6----6---------------------------------8--------------8----8|
G|---------------------------5----7--------------7-------------------7---7-------------------------|
D|-------------------------------------------------------------------------------------------------|
A|-------------------------------------------------------------------------------------------------|
E|-------------------------------------------------------------------------------------------------|

e|-----------------------------------------------------------------6----5----5-------------5-------|
B|--------------------------------------------------6----6----------------------------8---------8--|
G|------7----7----7----5----5--------5----5----7--------------7------------------------------------|
D|-------------------------------------------------------------------------------------------------|
A|-------------------------------------------------------------------------------------------------|
E|-------------------------------------------------------------------------------------------------|

e|---------------------8----8----8----8----6----5--------------------------------------5-----------|
B|------8----8----8----------------------------------8----6-------------6----6--------------8----8-|
G|-----------------------------------------------------------------7--------------7----------------|
D|-------------------------------------------------------------------------------------------------|
A|-------------------------------------------------------------------------------------------------|
E|-------------------------------------------------------------------------------------------------|

e|-----------5----5----5---------------------------------------------------------------------------|
B|------8-------------------6----8----8----8----8----6----6----------------------------------------|
G|-------------------------------------------------------------------------------------------------|
D|-------------------------------------------------------------------------------------------------|
A|-------------------------------------------------------------------------------------------------|
E|-------------------------------------------------------------------------------------------------|

e|--------------------------5----6----8-----6---------5----5----5-----------------------------------|
B|----------------8----8-------------------------8-------------------6----8----8----8----8----6----6|
G|------5----5--------------------------------------------------------------------------------------|
D|--------------------------------------------------------------------------------------------------|
A|--------------------------------------------------------------------------------------------------|
E|--------------------------------------------------------------------------------------------------|

e|--------------------------5----6----8-----6---------5----5----5-----------------------------------|
B|----------------8----8-------------------------8-------------------6----8----8----8----8----6----6|
G|------5----5--------------------------------------------------------------------------------------|
D|--------------------------------------------------------------------------------------------------|
A|--------------------------------------------------------------------------------------------------|
E|--------------------------------------------------------------------------------------------------|

[Outro]
e|--------------------------5----6----8-----6-------------------------------------------------|
B|----------------8----8-------------------------8-----6----6----5----------------------------|
G|------5----5--------------------------------------------------------7----7----5-------------|
D|--------------------------------------------------------------------------------------------|
A|--------------------------------------------------------------------------------------------|
E|--------------------------------------------------------------------------------------------|

e|--------------------------5----6----8-----6------------------------------5------------------|
B|----------------8----8-------------------------8---------------5----------------------------|
G|------5----5-----------------------------------------7----7---------7-----------------------|
D|--------------------------------------------------------------------------------------------|
A|--------------------------------------------------------------------------------------------|
E|--------------------------------------------------------------------------------------------|
Suggest correction
Creating personal tab
Creating personal tab
You can edit any tab online and save it as your Personal.

You can edit, replace or remove any tab part or add personal notes – all changes will be seen only by you.

Personal tabs can be accessed anytime from any device, even offline.
Learn more »
Give kudos to tab author, rate the tab!
1 2 3 4 5
comments
print report bad tab
guest
You may want to rate the tab now too:
select rating
Wanna post a correction for this tab? Suggest correction