Oops, an error
Loading. Please wait.

Banks Of The Deep End intro tab

version 1
version 1

Intro

Interactive

11,814 views 3 this week
1 commentread comment
1 2 3 4 5
1 last vote to show rating
add to favorites
×
Save as Personal and add changes to this tab that will be seen only by you. Learn more ›
×
You can save this tab as Personal to edit and correct it or add notes. All changes will be seen only by you. Learn more »
launch autoscroll
font size
0
reset
how to read this tab
guitar tuner
edit
Autoscroll
slow
fast
+/-
esc
set tempo
stop
Author
-------------------------------------------------------------------------------
                   BANKS OF THE DEEP END - Govt Mule
-------------------------------------------------------------------------------
Tabbed by: evanwiyams
Email: mfulbright@hotmail.com

Tuning:

e|-----4-(4)--------------------------4-(4)----------------------------------------------|
B|-----4-(4)--------------------------4-(4)----------------------------------------------|
G|-----4-(4)-------------4------------4-(4)----------------------------------------------|
D|-----------x-x-------4--------4s6---------x-x------------------------------------------|
A|-----------x-x--2-(2)---------------------x-x------------------------------------------|
E|---4-------x-x-----------2-(2)----4-------x-x------------------------------------------|
Suggest correction
Creating personal tab
Creating personal tab
You can edit any tab online and save it as your Personal.

You can edit, replace or remove any tab part or add personal notes – all changes will be seen only by you.

Personal tabs can be accessed anytime from any device, even offline.
Learn more »
Give kudos to tab author, rate the tab!
1 2 3 4 5
comments
print report bad tab
1 comment total.
0 reply
fexnah 71 Dec 21, 2007 03:33 AM

You dont play the G string in the intro, just the high E and the B, like
this:
e|-----4-(4)----
B|-----4-(4)----
G|-----
D|-----x-x
A|-----x-x
E|---4-----x-x

guest
You may want to rate the tab now too:
select rating
Wanna post a correction for this tab? Suggest correction